Oops, an error
Loading. Please wait.

Sunday Bloody Sunday Bass Tab

version 4
version 4
by U2
6,741 views 24 this week
no commentswrite comment
1 2 3 4 5
x 5
add to favorites
launch autoscroll
font size
0
reset
guitar tuner
Autoscroll
slow
fast
+/-
esc
set tempo
stop
Help us to improve Ultimate-Guitar.com Take our survey!
×
Difficulty
intermediate
[Intro]
G|-------------------------------------------------------|
D| ------------------------------------------------------|
A|-4---4-4-4-4-4---6---6-6-6-6-6-6-4---4-4-4-4-4---6-----|
E| --------------6-------------------------------6-------|

[Verse 1]
G|-------------------------------------------------------|
D|-------------------------4-4-4---4---4-4-4---4---------|
A|-------------4-4-4---4---------4-----------4-----------|
E|-6-6-6-4-6---------4-----------------------------------| X8

G|---------------------8----------------|
D|-----------6-8-9---8---8--------------|
A|-7-6-4---7-------6-------4------------|
E|--------------------------------------|

[Verse 2]
G|-------------------------------------------------------|
D|-------------------------4-4-4---4---4-4-4---4---------|
A|-------------4-4-4---4---------4-----------4-----------|
E|-6-6-6-4-6---------4-----------------------------------| X8

G|---------------------8-10-8-6---------------------------|
D|-------------------8----------8-------------------------|
A|-4---4-4-4-4-4---6--------------8-4---4-4-4-4-4---6-----|
E|---------------6--------------------------------6-------|

[Verse 3]
G|-------------------------------------------------------|
D|-------------------------4-4-4---4---4-4-4---4---------|
A|-------------4-4-4---4---------4-----------4-----------|
E|-6-6-6-4-6---------4-----------------------------------| X14

G|---------------------8----------------|
D|-----------6-8-9---8---8--------------|
A|-7-6-4---7-------6-------4------------|
E|--------------------------------------| X2

 End : 
G|-------------------------------------------------------|
D|-------------------------4-4-4---4---4-4-4---4---------|
A|-------------4-4-4---4---------4-----------4-----------|
E|-6-6-6-4-6---------4-----------------------------------| X10

G|---------|
D|---------|
A|-1-------|
E|---------|
Suggest correction
comments
print report bad tab
guest
You may want to rate the tab now too:
select rating
Wanna post a correction for this tab? Suggest correction