Oops, an error
Loading. Please wait.

Sunday Bloody Sunday Tab

version 5
by U2
7,417 views 9 this week
no commentswrite comment
1 2 3 4 5
excellent!
x 3
add to favorites
launch autoscroll
font size
0
reset
how to read this tab
guitar tuner
Autoscroll
slow
fast
+/-
esc
set tempo
stop
Help us to improve Ultimate-Guitar.com Take our survey!
×
Author
-----------------------------------------------------------------------------
                          Sunday Bloody Sunday – U2
-----------------------------------------------------------------------------
Tabbed by: Olive14
Email: olive14@u2.com

Tuning: half a step down

Intro

e|-----2-------2-------0-------0--------------------------------------------|
B|---3---3---3---3---3---3---3---3------------------------------------------|
G|-4-------2-------0-------0------------------------------------------------|
D|--------------------------------------------------------------------------|
A|--------------------------------------------------------------------------|
E|--------------------------------------------------------------------------|

“Bridge”

e|-2--0-2-3-----------------------------------------------------------------|
B|-3--0-3-3-----------------------------------------------------------------|
G|-2--0-2-0-----------------------------------------------------------------|
D|-0--2-0-0-----------------------------------------------------------------|
A|----2---2-----------------------------------------------------------------|
E|----0---3-----------------------------------------------------------------|

“Chorus”

e|-7-7-X-X-X-5-5-X-X-X-10-10-X-X-X-10-10-X-X-X---------10/12-10-------------|
B|-7-7-X-X-X-7-7-X-X-X-12-12-X-X-X-12-12-X-X-X---------12/14-12-------------|
G|-7-7-X-X-X-7-7-X-X-X-12-12-X-X-X-12-12-X-X-X--REPEAT-12/14-12-------------|
D|-9-9-X-X-X-7-7-X-X-X-12-12-X-X-X-12-12-X-X-X---THEN—-12/14-12-------------|
A|-9-9-X-X-X-5-5-X-X-X-10-10-X-X-X-10-10-X-X-X---------10/12-10-------------|
E|-7-7-X-X-X----------------------------------------------------------------|

“Fill”

   + + + + + + let ring

e|--------------------------------------------------------------------------|
B|---------7----------------------------------------------------------------|
G|-------5---7~-------------------------------------------------------------|
D|---5-5--------------------------------------------------------------------|
A|-5------------------------------------------------------------------------|
E|--------------------------------------------------------------------------|

“Solo”

e|-12-12-10-10-12-12-10-10-------------------12-12-10-10-12-12-10-10--------|
B|-0---0--0--0--0--0-0--0--12-12-10-10-12-12--0--0--0--0--0--0--0--0-12-1210|
G|-------------------------0---0--0--0--0--0--------------------------0--0-0|
D|--------------------------------------------------------------------------|
A|--------------------------------------------------------------------------|
E|--------------------------------------------------------------------------|

e|--0—-0--0--0--0--0--0-0-0-0-0-0-0-0-0-0-0-0-0-0-0-0-0-0-0-0-0-0-0-0-0-0-0-0
B|-10-12-12-10-10-10-10-8-8-7-7-5-5-3-3/5-3-3-2h3p2-0-0h3p0-3h5p3-5-5-7-7-8-8
G|-you can play this string too (0) until the end of the “solo” ------------|
D|--------------------------------------------------------------------------|
A|--------------------------------------------------------------------------|
E|--------------------------------------------------------------------------|

e|--0--0--0--0--0--0--0--0--0-----------------------------------------------|
B|-10-10-12-12-15-15-14-10/12~----------------------------------------------|
G|--------------------------------------------------------------------------|
D|--------------------------------------------------------------------------|
A|--------------------------------------------------------------------------|
E|--------------------------------------------------------------------------|

Then mute strings around 5th fret, hitting them in rhythm…


Listen to the song (Live versions) to play these parts in order.

Hoping this is accurate…

If you’d like to get Edge’s sound, check this site : http://www.amnesta.net/edge_delay/
 Good luck with it !!!


| /  slide up
| \  slide down
| h  hammer-on
| p  pull-off
| ~  vibrato
| +  harmonic
| x  Mute note
=============================================================================
Suggest correction
Give kudos to tab author, rate the tab!
1 2 3 4 5
comments
print report bad tab
guest
You may want to rate the tab now too:
select rating
Wanna post a correction for this tab? Suggest correction