Oops, an error
Loading. Please wait.

Sunday Bloody Sunday Tab

version 6
by U2
26,225 views 3 this week
5 commentsread comments
1 2 3 4 5
x 7
add to favorites
launch autoscroll
font size
0
reset
how to read this tab
guitar tuner
Autoscroll
slow
fast
+/-
esc
set tempo
stop
Help us to improve Ultimate-Guitar.com Take our survey!
×
I know that there is another version of this song that says you have to tune each string 
half a step, but I found a way to play it with a standard tuning.

Intro/Verse:

e--------------------|
B---6---6---4---4----|
G--6-6-6-6-6-6-6-6---|
D-8---6---4---4------|
A--------------------|
E--------------------|

Pre-chorus 1:

e------------------------|
B---6----7----6----7-----|
G---6----8----6----8-----|
D---6----8----6----8-----|
A---4----6----4----6-----|
E------------------------|
  C#maj D#m C#maj D#m

Pre-chorus 2:

e--9----14---13-9-----|
B-9----9--------------|
G---------------------|
D---------------------|
A---------------------|
E---------------------|

Chorus:

e---------------------------------|
B---------------------------------|
G------------6-6-x-x-6------------|
D-8-8-x-x-8--6-6-x-x-6--4-4-x-x-4-|
A-8-8-x-x-8--4-4-x-x-4--4-4-x-x-4-|
E-6-6-x-x-6-------------2-2-x-x-2-|

Solo:

e---11-11-11-11-9-9-9-11-11-11-11-9-9-9-|
B-o-------------------------------------|
G---------------------------------------|
D-o-------------------------------------|
A---------------------------------------|
E---------------------------------------|

e---------------------------------------|
B-11-11-11-11-9-9-9-11-11-11-11-9-9-9-o-|
G---------------------------------------|
D-------------------------------------o-|
A---------------------------------------|
E---------------------------------------|

e---------------------------------------|
B-9-9-9-7-7-7-6-6-6-4-4-4-2-2-2h4-2-2---|
G---------------------------------------|
D---------------------------------------|
A---------------------------------------|
E---------------------------------------|

e----------------------------------------|
B----------------------------------------|
G-4-4-4/6-4-3-4-4-4-6-6-6-8-8-8-10-10-10-|
D----------------------------------------|
A----------------------------------------|
E----------------------------------------|

e-------------------------------------------------|
B-------------------------------------------------|
G-12-12-12-13-13-13-15-15-15-18-18-18-17-13-15-15-|
D-------------------------------------------------|
A-------------------------------------------------|
E-------------------------------------------------|

Order:
Intro         2x
Verse         2x
Pre-chorus 1  1x
Chorus        2x
Verse         6x
Pre-chorus 2  2x
Chorus        2x
Verse         6x
Pre-chorus 1  1x
Chorus        4x
Solo          1x
Chorus (bass) 6x
Pre-chorus    4x
Chorus        10x
Suggest correction
comments
print report bad tab
5 comments total. Showing first comments.
0 reply
OtaconNachos 115 Mar 19, 2008 12:54 AM

Sweet tab.

0 reply
¥acoustic_lord¥ 10 Oct 16, 2009 09:00 PM

Great ear bro :D

0 reply
Erska96 20 Sep 21, 2010 02:13 PM

pretty good. almost right.

guest
You may want to rate the tab now too:
select rating
Wanna post a correction for this tab? Suggest correction