Oops, an error
Loading. Please wait.

The Fly Tab

version 1
version 1

Whole song

Interactive

by U2
30,191 views 24 this week
2 commentsread comments
1 2 3 4 5
accurate
x 6
add to favorites
launch autoscroll
font size
0
reset
how to read this tab
guitar tuner
Autoscroll
slow
fast
+/-
esc
set tempo
stop
Help us to improve Ultimate-Guitar.com Take our survey!
×
The fly by U2
Tabbed by Quynh Lam

Play fast               |   Play 4 times              |
------------------------|-----------------------------|
------------------------|-----------------------------|
------------------------|-----------------------------|
---5--------------------|-----------------------------|
-7---7--5----7---7---7--|--7\-0-7-7--0-7--0-7-7--5----|
-----------0---0---0----|---------------------------0-|

RIFF 1
Play 8 times
-----------------------|
-----------------------|
-----------------------|
-----------------------|
---7-7---7----7--7--5--|
-0-----0----0----------|

Verse

--------------------|-----------------------|
--12/14\12---12--12-|-----------------------|  
--12/14\12---12--12-|-----------------------|
--12/14\12---12--12-|-----------------------|
--------------------|---7-7---7----7--7--5--|
--------------------|-0-----0----0----------|

Chorus
[Gospel voice]
C#m      E                 A                 [Lower voice]
Love.......we shine like a burning star      A man will beg a man will 
                       C#m      E   A        on the sheer face of love
We're falling from the sky....... tonight    like a fly on the wall. 
                                             It's no secret at all.

------------------------|
--12-x-x--x-x-x--12\9---|
--12-x-x--x-x-x--12\9---|
--12-x-x--x-x-x--12\9---|
------------------------|
------------------------|

---------------------------|
---------------------------|<<
                                    
Suggest correction
comments
print report bad tab
2 comments total.
0 reply
Edge_rules 30 wrote on January 4 2003, 12:00 am

sorry the solo got cut off here it is
Played 5 string B
20-19-15/17-17-5/20-20-19-15-12-5/20-

20-20-19-15-17-20-15-15-15-15-14h15-14-

12h14-12-10h12-10-9h10-9-7h9-7-5h7-5-7-

10-9-7-5-5-10-9-7-9-9-9/14-14-14-12-14-

12-12-10h12-10-9h10-9-7h9-7-5h7-5-9-7-

5-7-9-7-5-7-9-5-7-5-7-9-10-12-12-14-16-

16-17-17

0 reply
JackCobainYoung 12 wrote on January 24 2015, 08:55 am

Soooo awesome dude!!

guest
You may want to rate the tab now too:
select rating
Please do not post tabs as comments. Select "correction" instead!