Oops, an error
Loading. Please wait.

The Fly Bass Tab

version 2
version 2

Whole song

Interactive

by U2
2,671 views 3 this week
no commentswrite comment
1 2 3 4 5
accurate
x 3
add to favorites
launch autoscroll
font size
0
reset
guitar tuner
Tab Pro tools
  • play this tab
  • loop segment
  • change instrument
  • show fretboard
  • metronome
×
Best way to learn
"The Fly"
Autoscroll
slow
fast
+/-
esc
set tempo
stop
Intro 0:20
g|--------------------------------------------------------------|
d|--0-----------------------------------------------------------|
a|-----2--0-----------------------------------------------------|
E|-----------3--------------------------------------------------|

Verse 0:23
g|--------------------------------------------------------------|
d|--------------------------------------------------------------|
a|-7-7-7-5--7-77-7-5---7-7-7-5--7-77-7-5---7-7-7-5--7-77-7-5----|
E|--------------------------------------------------------------|

g|--------------------------------------------------------------|
d|--------------------------------------------------------------|
a|-7-7-7-5--7-77-7-5---7-7-7-5--7-77-7-5---7-7-7-5--7-77-7-5----|
E|--------------------------------------------------------------|

g|--------------------------------------------------------------|
d|--------------------------------------------------------------|
a|-7-7-7-5--7-77-7-5---7-7-7-5--7-77-7-5---7-7-7-5--7-77-7-5----|
E|--------------------------------------------------------------|

0:40
g|--------------------------------------------------------------|
d|--------------------------------------------------------------|
a|-7-7-7-5--7-77-7-5------------------------5-5-5-3--5-55-5-3---|
E|----------------------5-5-5-3--5-55-5-3-----------------------|

g|--------------------------------------------------------------|
d|--------------------------------------------------------------|
a|-7-7-7-5--7-77-7-5---7-7-7-5--7-77-7-5---7-7-7-5--7-77-7-5----|
E|--------------------------------------------------------------|

g|--------------------------------------------------------------|
d|--------------------------------------------------------------|
a|-7-7-7-5--7-77-7-5---7-7-7-5--7-77-7-5---7-7-7-5--7-77-7-5----|
E|--------------------------------------------------------------|

g|--------------------------------------------------------------|
d|--------------------------------------------------------------|
a|-7-7-7-5--7-77-7-5---7-7-7-5--7-77-7-5---7-7-7-5--7-77-7-5----|
E|--------------------------------------------------------------|

0:58
g|--------------------------------------------------------------|
d|--------------------------------------------------------------|
a|-7-7-7-5--7-77-7-5------------------------5-5-5-3--5-55-5-3---|
E|----------------------5-5-5-3--5-55-5-3-----------------------|

g|--------------------------------------------------------------|
d|--------------------------------------------------------------|
a|-7-7-7-5--7-77-7-5---7-7-7-5--7-77-7-5---7-7-7-5--7-77-7-5----|
E|--------------------------------------------------------------|

Chorus 1:07

g|--------------------------------------------------------------|
d|--------------------------------------------------------------|
a|-4-4-4-4-4-4-4-4-7-7-7-7-7-7-7-7------------------------------|
E|---------------------------------5-5-5-5-5-5-5-5-5-5-5-5-5-5--|

g|--------------------------------------------------------------|
d|--------------------------------------------------------------|
a|-4-4-4-4-4-4-4-4-7-7-7-7-7-7-7-7------------------------------|
E|---------------------------------5-5-5-5-5-5-5-5-5-5-5-5-5-5--|

g|--------------------------------------------------------------|
d|-2-0------2--0-------2-0--------220---------------------------|
a|-----2-0-------2-0-------2-0--------2-0-----------------------|
E|---------3---------3-----------3----------3-------------------|

Verse 2 1:33

g|--------------------------------------------------------------|
d|--------------------------------------------------------------|
a|-7-7-7-5--7-77-7-5---7-7-7-5--7-77-7-5---7-7-7-5--7-77-7-5----|
E|--------------------------------------------------------------|

g|--------------------------------------------------------------|
d|--------------------------------------------------------------|
a|-7-7-7-5--7-77-7-5------------------------5-5-5-3--5-55-5-3---|
E|----------------------5-5-5-3--5-55-5-3-----------------------|

Chorus 2 1:51

g|--------------------------------------------------------------|
d|--------------------------------------------------------------|
a|-4-4-4-4-4-4-4-4-7-7-7-7-7-7-7-7------------------------------|
E|---------------------------------5-5-5-5-5-5-5-5-5-5-5-5-5-5--|

g|--------------------------------------------------------------|
d|--------------------------------------------------------------|
a|-4-4-4-4-4-4-4-4-7-7-7-7-7-7-7-7------------------------------|
E|---------------------------------5-5-5-5-5-5-5-5-5-5-5-5-5-5--|

g|--------------------------------------------------------------|
d|-2-0------2--0-------2-0--------220---------------------------|
a|-----2-0-------2-0-------2-0--------2-0-----------------------|
E|---------3---------3-----------3----------3-------------------|

Bridge 2:18

g|--------------------------------------------------------------|
d|--------------------------------------------------------------|
a|-----------3--55------------3--55-----------------------------|
E|-0-0-0--5---------0-0-0--5------------------------------------|

g|--------------------------------------------------------------|
d|--------------------------------------------------------------|
a|-----------3--55------------3--55-----------------------------|
E|-0-0-0--5---------0-0-0--5------------------------------------|

g|--------------------------------------------------------------|
d|--------------------------------------------------------------|
a|-7-7-7-5--7-77-7-5---7-7-7-5--7-77-7-5---7-7-7-5--7-77-7-5----|
E|--------------------------------------------------------------|

g|--------------------------------------------------------------|
d|--------------------------------------------------------------|
a|-7-7-7-5--7-77-7-5---7-7-7-5--7-77-7-5---7-7-7-5--7-77-7-5----|
E|--------------------------------------------------------------|

g|--------------------------------------------------------------|
d|--------------------------------------------------------------|
a|-7-7-7-5--7-77-7-5------------------------5-5-5-3--5-55-5-3---|
E|----------------------5-5-5-3--5-55-5-3-----------------------|

g|--------------------------------------------------------------|
d|--------------------------------------------------------------|
a|-7-7-7-5--7-77-7-5---7-7-7-5--7-77-7-5---7-7-7-5--7-77-7-5----|
E|--------------------------------------------------------------|

g|--------------------------------------------------------------|
d|--------------------------------------------------------------|
a|-7-7-7-5--7-77-7-5---5-5-5-3--5-55-5-3------------------------|
E|-----------------------------------------5-5-5-3--5-55-5-3----|

g|--------------------------------------------------------------|
d|--------------------------------------------------------------|
a|-7-7-7-5--7-77-7-5---7-7-7-5--7-77-7-5---7-7-7-5--7-77-7-5----|
E|--------------------------------------------------------------|

Chorus 3:06

g|--------------------------------------------------------------|
d|--------------------------------------------------------------|
a|-4-4-4-4-4-4-4-4-7-7-7-7-7-7-7-7------------------------------|
E|---------------------------------5-5-5-5-5-5-5-5-5-5-5-5-5-5--|

g|--------------------------------------------------------------|
d|--------------------------------------------------------------|
a|-4-4-4-4-4-4-4-4-7-7-7-7-7-7-7-7------------------------------|
E|---------------------------------5-5-5-5-5-5-5-5-5-5-5-5-5-5--|

g|--------------------------------------------------------------|
d|--------------------------------------------------------------|
a|-4-4-4-4-4-4-4-4-7-7-7-7-7-7-7-7------------------------------|
E|---------------------------------5-5-5-5-5-5-5-5-5-5-5-5-5-5--|

g|--------------------------------------------------------------|
d|--------------------------------------------------------------|
a|-4-4-4-4-4-4-4-4-7-7-7-7-7-7-7-7------------------------------|
E|---------------------------------5-5-5-5-5-5-5-5-5-5-5-5-5-5--|

g|--------------------------------------------------------------|
d|--------------------------------------------------------------|
a|-4-4-4-4-4-4-4-4-7-7-7-7-7-7-7-7------------------------------|
E|---------------------------------5-5-5-5-5-5-5-5-5-5-5-5-5-5--|

g|--------------------------------------------------------------|
d|--------------------------------------------------------------|
a|-4-4-4-4-4-4-4-4-7-7-7-7-7-7-7-7------------------------------|
E|---------------------------------5-5-5-5-5-5-5-5-5-5-5-5-5-5--|

Verse 3 3:50
g|--------------------------------------------------------------|
d|--------------------------------------------------------------|
a|-7-7-7-5--7-77-7-5---7-7-7-5--7-77-7-5---7-7-7-5--7-77-7-5----|
E|--------------------------------------------------------------|

g|--------------------------------------------------------------|
d|--------------------------------------------------------------|
a|-7-7-7-5--7-77-7-5---7-7-7-5--7-77-7-5---7-7-7-5--7-77-7-5----|
E|--------------------------------------------------------------|

g|--------------------------------------------------------------|
d|--------------------------------------------------------------|
a|-7-7-7-5--7-77-7-5---7-7-7-5--7-77-7-5---7-7-7-5--7-77-7-5----|
E|--------------------------------------------------------------|

g|--------------------------------------------------------------|
d|--------------------------------------------------------------|
a|-7-7-7-5--7-77-7-5---7-7-7-5--7-77-7-5---7-7-7-5--7-77-7-5----|
E|--------------------------------------------------------------|

g|--------------------------------------------------------------|
d|--------------------------------------------------------------|
a|-7-7-7-5--7-77-7-5---7-7-7-5--7-77-7-5---7-7-7-5--7-77-7-5----|
E|--------------------------------------------------------------|

g|--------------------------------------------------------------|
d|--------------------------------------------------------------|
a|-7-7-7-5--7-77-7-5---7-7-7-5--7-77-7-5---7-7-7-5--7-77-7-5----|
E|--------------------------------------------------------------|

Enjoy the Tab :D
comments
We did not receive enough feedback on this tab! Please rate:
print report bad tab
1 2 3 4 5
I want to post or [tab]
guest
You may want to rate the tab now too:
select rating
Please do not post tabs as comments. Select "correction" instead!