Oops, an error
Loading. Please wait.

The Miracle Of Joey Ramone tab

version 1
version 1

Whole song

Interactive

by U2
22,663 views 51 this week
1 commentread comment
1 2 3 4 5
x 11
add to favorites
×
Save as Personal and add changes to this tab that will be seen only by you. Learn more ›
×
You can save this tab as Personal to edit and correct it or add notes. All changes will be seen only by you. Learn more »
launch autoscroll
font size
0
reset
how to read this tab
guitar tuner
backing track
0:00
0:00
edit
Autoscroll
slow
fast
+/-
esc
set tempo
stop
Author
Difficulty
The Miracle (of Joey Ramone) - U2
Tabbed by: Corey Maller
Tuning: standard

[Main chord progression]
e|-----------------------------------------------------------------|
B|-----------------------------------------------------------------|
G|--------------------------------12-12---10-10--------------------|
D|------7-7-------7-7------7-7----12-12---10-10--------------------|
A|------7-7-------7-7------7-7----10-10---8--8---------------------|
E|----0-5-5-----0-5-5----0-5-5-------------------------------------|

[Verse 1]
measure 3 and 4
e|---------------------------------------------------------------------------|
B|---------------------------------------------------------------------------|
G|---------------------------------------------------------------------------| x2
D|---------------------------------------------------------------------------|
A|-----------3-3-------------------------------------------------------------|
E|---5-5------------3-3----1-1-0-0-------------------------------------------|

measure 5 and 6
e|---------------------------------------------------------------------|
B|---------------------------------------------------------------------|
G|-----------5-5-------------------------------------------------------| x2
D|----7-7----5-5----5-5----3-3-----------------------------------------|
A|----7-7----3-3----5-5----3-3-----------------------------------------|
E|----5-5-----------3-3----1-1-0---------------------------------------|

[Chorus 1]
e|-----------------------------------------------------------------------------------------|
B|-----------------------------------------------------------------------------------------|
G|-----------------------------------------------------------------------------------------| x2
D|-----------------------------------------------------------------------------------------| 
A|--------------------------------------------------------------9-9-7---9-9-7--------------|
E|---3-3-3-3-10-10-10-10-7-7-7-7-5-10-9-5-3-3-3-3-10-10-10-10-5-------5--------------------|

followed by
e|---------------------------------------------------------------------|
B|---------------------------------------------------------------------|
G|-----------5-5-------------------------------------------------------| x2
D|----7-7----5-5----5-5----3-3-----------------------------------------|
A|----7-7----3-3----5-5----3-3-----------------------------------------|
E|----5-5-----------3-3----1-1-0---------------------------------------|

[Verse 2]
measure 3 and 4
e|---------------------------------------------------------------------------|
B|---------------------------------------------------------------------------|
G|---------------------------------------------------------------------------| x2
D|---------------------------------------------------------------------------|
A|-----------3-3-------------------------------------------------------------|
E|---5-5------------3-3----1-1-0-0-------------------------------------------|

[Chorus 2]
e|-----------------------------------------------------------------------------------------|
B|-----------------------------------------------------------------------------------------|
G|-----------------------------------------------------------------------------------------| x2
D|-----------------------------------------------------------------------------------------| 
A|--------------------------------------------------------------9-9-7---9-9-7--------------|
E|---3-3-3-3-10-10-10-10-7-7-7-7-5-10-9-5-3-3-3-3-10-10-10-10-5-------5--------------------|

interlude part 1
e|--------------------------------------------------------------------------------------------|
B|--------------------------------------------------------------------------------------------|
G|--------------------------------------------------------------------------------------------|
D|--------------------------------------------------------------------------------------------|
A|--------------------------------------------------------------------------------------------|
E|--5-5-5-5-8-8-8-8-5-5-5-5-8-8-8-8-5-5-5-5-8-8-8-8-5-5-5-5-3-3-1-0---------------------------|

[interlude] part 2 (main chord progression)
e|-----------------------------------------------------------------|
B|-----------------------------------------------------------------|
G|--------------------------------12-12---10-10--------------------| x2
D|------7-7-------7-7------7-7----12-12---10-10--------------------|
A|------7-7-------7-7------7-7----10-10---8--8---------------------|
E|----0-5-5-----0-5-5----0-5-5-------------------------------------|

[interlude] part 3 (when Bono sings)
e|----x-x-x-x---2-2-2-2----------------------------------------------------------|
B|----0-0-0-0---3-3-3-3---2-3-3-2-2-3-3-2----------------------------------------|
G|----0-0-0-0---2-2-2-2---2-2-2-2-2-2-2-2----------------------------------------| x4
D|----0-0-0-0---0-0-0-0---2-2-2-2-2-2-2-2----------------------------------------|
A|----2-2-2-2--------------------------------------------------------------------|
E|----3-3-3-3--------------------------------------------------------------------|

right after
e|---------------------------------------------------------------------|
B|---------------------------------------------------------------------|
G|-----------5-5-------------------------------------------------------| x2
D|----7-7----5-5----5-5----3-3-----------------------------------------|
A|----7-7----3-3----5-5----3-3-----------------------------------------|
E|----5-5-----------3-3----1-1-0---------------------------------------|

end with this
e|---------------------|
B|---------------------|
G|---------------------|
D|------7-7-------7-7--|
A|------7-7-------7-7--|
E|----0-5-5-----0-5-5--|

************************************

| x  Dead note

************************************

            
            
Suggest correction
Creating personal tab
Creating personal tab
You can edit any tab online and save it as your Personal.

You can edit, replace or remove any tab part or add personal notes – all changes will be seen only by you.

Personal tabs can be accessed anytime from any device, even offline.
Learn more »
comments
print report bad tab
1 comment total.
+1 reply
ThorChicken 1,608 Nov 01, 2014 04:06 PM

OMG! This is amazing!

guest
You may want to rate the tab now too:
select rating
Wanna post a correction for this tab? Suggest correction