Oops, an error
Loading. Please wait.

The Ocean Tab

version 1
version 1

Whole song

Interactive

by U2
2,086 views 9 this week
no commentswrite comment
1 2 3 4 5
excellent!
x 3
add to favorites
launch autoscroll
font size
0
reset
how to read this tab
guitar tuner
Autoscroll
slow
fast
+/-
esc
set tempo
stop
Help us to improve Ultimate-Guitar.com Take our survey!
×
Author
This is a neat little song on their debut album, Boy. The bass tabs on this site are fairly accurate, 
so I won't bother tabbing out myself here. Remember to tune your guitar down half a step. The delay setting 
for song is at roughly 100ms or so. Just enough to get a nice echo with 1-2 repeats. Play it softly.

Tabbed by: Tracy Lalonde


Tuning: Down half a step

(Intro riff)                                 Harmonic
eb|--15------14---12---------------------------(12)--------|
Bb|------12---------------15---------14--------(12)--------|
Gb|----------------------------12--------------(12)--------|
Db|--------------------------------------14----------------|
Ab|--------------------------------------------------------|
Eb|--------------------------------------------------------|

Thing played during verses
eb|--(12)-------------------|
Bb|-------12----------------|
Gb|-----------12------------|
Db|---------------12--------|
Ab|-------------------------|
Eb|-------------------------|

(Played twice)
eb|--15------14---12--------------------------------|
Bb|------12---------------15---------14-------------|
Gb|----------------------------12-------------------|
Db|--------------------------------------14---------|
Ab|-------------------------------------------------|
Eb|-------------------------------------------------|


Outro
eb|------------14----------(12)----------------------------|
Bb|--15----12------15-----(12)-----------------------------|
Gb|----------------------(12)----------------11------------|
Db|----------------------x-----------12---9------12--------|
Ab|--------------------------------------------------------|
Eb|--------------------------------------------------------|

                                            (fade out)
eb|-------------------------------------------------------------|
Bb|----12---14---12---10---9---8-------10---9----9---------8----|
Gb|---12----14---14---12---9---9-------11---9-------9---9/11----|
Db|-------------------------------------------------------------|
Ab|-------------------------------------------------------------|
Eb|-------------------------------------------------------------|


And that's pretty much it!
Suggest correction
Give kudos to tab author, rate the tab!
1 2 3 4 5
comments
print report bad tab
guest
You may want to rate the tab now too:
select rating
Wanna post a correction for this tab? Suggest correction