Oops, an error
Loading. Please wait.

The Ocean Bass Tab

version 2
version 2

Whole song

Interactive

by U2
640 views 1 this week
no commentswrite comment
1 2 3 4 5
2 more votes to show rating
add to favorites
launch autoscroll
font size
0
reset
guitar tuner
Autoscroll
slow
fast
+/-
esc
set tempo
stop
Help us to improve Ultimate-Guitar.com Take our survey!
×
Author
Difficulty
THE OCEAN
U2

Taken from the Island album Boy (1980)

Transcribed by: Damian Pamminger (TwitcheD_85@hotmail.com)

Tune down 1/2 step: Eb Ab Db Gb

* = natural harmonic

|-11--------|-------11-----------11-----------11-----------11-----12*----7*----|
|--9--------|----9------9-----9------9-----9------9-----9------0--12*----7*----|
|--7--------|-7------------7------------7------------7-------------------------|
|-----------|------------------------------------------------------------------|

|---12*----7*----12*----7*----12*----7*---|------------|---------18------------|
|---12*----7*----12*----7*----12*----7*---|---REPEAT---|-----16------16--------|
|-----------------------------------------|-three-more-|-14--------------14----|
|-----------------------------------------|---times----|-----------------------|

|-----18--------------17--------------17--------------18--------------18----|
|-16------16------15------15------15------15------16------16------16--------|
|-------------13--------------13--------------14--------------14------------|
|---------------------------------------------------------------------------|

|-------------17--------------17--\---|-------11---------| Repeat
|---------15------15------15----------|----9------9------| until
|-13--13--------------13--------------|-7----------------| end
|-------------------------------------|------------------| fade
Suggest correction
Give kudos to tab author, rate the tab!
1 2 3 4 5
comments
print report bad tab
guest
You may want to rate the tab now too:
select rating
Wanna post a correction for this tab? Suggest correction