Oops, an error
Loading. Please wait.

The Saints Are Coming Bass Tab

version 2
version 2

Whole song

by U2
6,908 views 9 this week
1 commentread comment
1 2 3 4 5
accurate
x 4
add to favorites
launch autoscroll
font size
0
reset
guitar tuner
Tab Pro tools
  • play this tab
  • loop segment
  • change instrument
  • show fretboard
  • metronome
×
Best way to learn
"The Saints Are Coming"
Autoscroll
slow
fast
+/-
esc
set tempo
stop
Contributor
Difficulty
novice
Song: The Saints Are Coming
Artist: U2&Greenday

Intro: There Is No Bass For The Intro Only Guitar

The Edge
e|-12:--10:--|  Just Listen to the Music                              
B|-----------|  
G|-----------|
D|-----------|
A|-----------|
E|-----------|



Start On The Second “ I cry to my Daddy On the Telephone”

G|--------------------------------|
D|--------------------------------| 
A|-77777\55555\22222-544444/77777-| x2        Tip: Play 5341 as fast
E|--------------------------------|                As Possible 

Verse:

G|---------------------------|
D|---------------------------|
A|-77777\55555\22222---------|
E|-------------------7-7-5341|

G|---------------------------|
D|---------------------------|
A|-77777\55555\22222---22222-|
E|-------------------5-------|

G|---------------------------|
D|---------------------------|
A|-77777\55555\22222---------|
E|-------------------7-7-5341|
 
Pre-chorus:

G|---------|
D|---------|
A|-7777777-|
E|---------|

Chorus:

G|------------------------------------------|
D|------------------------------------------|
A|-5/77777\55555/77777\55555/77777777777777-|
E|------------------------------------------|


Pre-verse:

G|--------------------------------|
D|--------------------------------|  
A|-77777\55555\22222-544444/77777-| x2
E|--------------------------------|

Guitar Bridge:

G|------------------------------|
D|------------------------------|
A|-77777\22222/77777/1212121212-|
E|------------------------------|

Verse:

G|---------------------------|
D|---------------------------|
A|-77777\55555\22222---------|
E|-------------------7-7-5341|

G|---------------------------|
D|---------------------------|
A|-77777\55555\22222---22222-|
E|-------------------5-------|

G|---------------------------|
D|---------------------------|
A|-77777\55555\22222---------|
E|-------------------7-7-5341|

Chorus:

G|------------------------------------------|
D|------------------------------------------|
A|-5/77777\55555/77777\55555/77777777777777-|
E|------------------------------------------|

End:

A|-7--|
comments
print report bad tab
1 comment total.
0 reply
GuitarHero_FT wrote on January 31 2008, 04:27 am

Cool tab, sounds good. keep it up.

I want to post or [tab]
guest
You may want to rate the tab now too:
select rating
Please do not post tabs as comments. Select "correction" instead!