Oops, an error
Loading. Please wait.

The Saints Are Coming Tab

version 6
version 6
by U2
844 views 1 this week
no commentswrite comment
1 2 3 4 5
3 more votes to show rating
add to favorites
launch autoscroll
font size
0
reset
how to read this tab
guitar tuner
Autoscroll
slow
fast
+/-
esc
set tempo
stop
Help us to improve Ultimate-Guitar.com Take our survey!
×
Author
Difficulty
intermediate
Song Order:
Verse
Verse Fill
Verse
Chorus Fill 1
Chorus
Chorus Fill 2
Chorus
Solo
Verse
Chorus Fill 1
Chorus
Outro (similar to Chorus Fill 2)

NOTE: ANY NUMBERS 3 DIGITS OR MORE ARE MULTIPLE NOTES PLAYED QUICKLY
EXAMPLE: 11112121414 is 11th twice then 12th twice then 14th quickly

For any comments or questions, e-mail me at burke.john15@gmail.com with the e-mail title 
"The Saints Are Coming Guitar Tab"       -thank you

I'M NOT SURE WHICH GUITARIST PLAYS WHAT SINCE IT'S U2 AND GREEN DAY, BUT THIS IS WHAT I PLAY

/ slide up on the fret board (notes getting lower)
\ slide down on the fret board (notes getting higher)


Verse:
e|-0------3------2--------------------| basically Em then
B|-0------3------3--------------------| G then Bm
G|-0------0------4--------------------|
D|-2------0------4--------------------| play twice then
A|-2------2------2--------------------| go to verse fill
E|-0------3---------------------------|


Verse Fill:
e|--------------------------------------------------| wait a while after
B|--------------------------------------------------| the verse before
G|-12-12-12-12-11-11-11-11-11-11-11-11-11-11-11-11--| playing the fill
D|--14-14-14-14-14-14-14-14-12-12-12-12-11-11-11-11-|
A|--------------------------------------------------| play twice
E|--------------------------------------------------|


Chorus Fill 1:
e|----------------------------------------|
B|----------------------------------------|
G|-11-12-14-------------------------------| play 5 times
D|----------------------------------------|
A|----------------------------------------|
E|----------------------------------------|


Chorus:
e|-7----10---7----10----------------------|
B|-8----8----8----8-----------------------|
G|-9----7----9----7-----------------------|
D|-9----9----9----9-----------------------|
A|-7----7----7----7-----------------------|
E|----------------------------------------|


Chorus Fill 2:
e|--------------------------------------------------|
B|--------------------------------------------------| play twice then
G|-111112121414-------------------------------------| once more but
D|--------------------------------------------------| stop at the second
A|--------------------------------------------------| 12th fret
E|--------------------------------------------------|


Solo: (part 1)
e|------------------------------------------------------------------|
B|------------------------------------------------------------------|
G|-1212121212121212111111111111111111111111111111111111111111111111-|
D|-1414141414141414141414141414141412121212121212121111111111111111-| <--|
A|------------------------------------------------------------------|    |
E|------------------------------------------------------------------|    |
                        then this                                        |
e|--------------------------------------------------|                    |
B|--------------------------------------------------|                    |
G|-12-12-12-12-11-11-11-11-11-11-11-11-11-11-11-11--|                    |
D|--14-14-14-14-14-14-14-14-12-12-12-12-11-11-11-11-|                    |
A|--------------------------------------------------|                    |
E|--------------------------------------------------|                    |
            then play the very first part of the solo again -------------|


Solo: (part 2)
e|--------------------------------------------------|
B|--------------------------------------------------|
G|---------------16--21-----------------------------| if you don't have a
D|-12\14--------------------------------------------| 21 fret you can use
A|--------12\14-------------------------------------| 17 fret on the B
E|--------------------------------------------------|


Outro:
e|------------------------------------------------------------------------|
B|------------------------------------------------------------------------|
G|-111112121414-------------------------------------| play 10-------------| times then
D|--------------------------------------------------| this right after----|
A|--------------------------------------------------|                  ---|
E|--------------------------------------------------|                  ---|
                                                                        |
e|--------------------------------------------------|                  ---|
B|--------------------------------------------------|                  ---|
G|-1111-9-------------------------------------------|  <------------------|
D|------------------------------------------------------------------------|
A|------------------------------------------------------------------------|
E|------------------------------------------------------------------------|
Suggest correction
Give kudos to tab author, rate the tab!
1 2 3 4 5
comments
print report bad tab
guest
You may want to rate the tab now too:
select rating
Wanna post a correction for this tab? Suggest correction