Oops, an error
Loading. Please wait.

The Sweetest Thing Bass Tab

version 2
version 2

Whole song

Interactive

by U2
4,074 views 6 this week
no commentswrite comment
1 2 3 4 5
x 3
add to favorites
launch autoscroll
font size
0
reset
guitar tuner
Autoscroll
slow
fast
+/-
esc
set tempo
stop
Help us to improve Ultimate-Guitar.com Take our survey!
×
Author
Difficulty
intermediate
U2 - The Sweetest Thing

Intro:

G|----------------------------|
D|----------------3-5---------|
A|-12\-3-3-3-3-3------3-------|
E|------------------------0-1-|

Verse:

G|----------------------------|
D|----------------------------|
A|---------------8-10---------| X 9
E|--/8-8-8-8-8--------8---0-1-|

Chorus:  

G|-------------------------------------------------------------|
D|-------------------------------------------------------------|
A|-5--5--5--5--3--3--3--/10--10--10---10--10--10---------------|
E|-------------------------------------------------------------|

G|-------------------------------------------------------------|
D|-12--12--12--12--10--10--10--9-------------------------------|
A|---------------------------------10--10--10--10--------------|
E|-------------------------------------------------------------|

G|----------------------------------------|
D|----------------------------3-5---------|
A|-10--10--10-12\--3-3-3-3-3------3-------|
E|------------------------------------0-1-|

Verse 2:

G|----------------------------|
D|----------------------------|
A|---------------8-10---------| X 7
E|--/8-8-8-8-8--------8---0-1-|

Chorus 2:

G|-------------------------------------------------------------|
D|-------------------------------------------------------------|
A|-5--5--5--5--3--3--3--/10--10--10---10--10--10---------------|
E|-------------------------------------------------------------|

G|-------------------------------------------------------------|
D|-------------------------------------------------------------|
A|-5--5--5--5--3--3--3---10--10--10---10--10--10---------------|
E|-------------------------------------------------------------|

G|-------------------------------------------------------------|
D|----------------------------------------------7?-------------|
A|-8-8-8-8-8---8-8-8-8------8-8-8-8-8---8-8-8----8\------------|
E|----------------------8\-------------------------------------|

Interlude: 
(Some parts of this can be tricky - you might like to just stick to the main verse riff)

G|-------------------------------------------------------------|
D|------------------------------------5------------------------|
A|-3-3-3-3-3------3--------3-3-3-3-3----3-3--------------------|
E|------------0-1------3---------------------------------------|

G|-------------------------------------------------------------|
D|----------------3-5--------10-10-10-10-----------------------|
A|-----3-3-3-3-3------3----------------------------------------|
E|-3-------------------------------------8--0-6-8--------------|

G|-------------------------------------------------------------|
D|-10-10---------------------------------3-5-------------------|
A|----------------------------3-3-3-3-3------3-----------------|
E|-------8-8-8--0-6-8-----5-----------------------0-1----------|

G|----------------------------|
D|----------------------------|
A|---------------8-10---------| X 13
E|--/8-8-8-8-8--------8---0-1-|

End:

G|----------------------------|
D|----------------------------|
A|---------------8-10-----8---|
E|--/8-8-8-8-8--------8-----8-|

Apologies for any errors - I did this in about an hour at 2am :-)
Widi Pro rocks!  http://widisoft.com/
Suggest correction
Give kudos to tab author, rate the tab!
1 2 3 4 5
comments
print report bad tab
guest
You may want to rate the tab now too:
select rating
Wanna post a correction for this tab? Suggest correction