Oops, an error
Loading. Please wait.

Tomorrow Bass Tab

by U2
594 views 3 this week
no commentswrite comment
1 2 3 4 5
3 more votes to show rating
add to favorites
launch autoscroll
font size
0
reset
guitar tuner
Autoscroll
slow
fast
+/-
esc
set tempo
stop
Help us to improve Ultimate-Guitar.com Take our survey!
×
TOMORROW - U2
-------------

Tabbed by Jeremy Epp (achtungbaby@earthling.net)

Here's the bass line for Tomorrow.  I won't promise that all the strings
are correct, but I'm pretty sure the notes are accurate.
It's easy to figure out the rhythms by listening to the song.

Regular Tuning


INTRO:


G----------------------------------------------------------------|
D----------------------------------------------------------------|
A---------------7\0------3--------0------3--------0-----3--------|
E---------------------------------------------------------3----0-|

G----------------|
D----------------|
A-0-----3--------|
E---------3----0-|


VERSE:


Won't you...
G----------------------------------------------------------------|
D----------------------------------------------------------------|
A-0-----3--------0-----3---------0-----3---------0-----3---------|
E---------3----0---------3-----0---------3-----0---------3-----0-|


REPEAT UNTIL:
(played as eighth notes in double time)


Cause I want you...
G-------------------------------------------------------------------|
D-------------------------------------------------------------------|
A-00000033--------00000033--------00000033--------00000033----------|
E---------33333330--------33333330--------33333330--------33333333--|


THEN:
(again, played as eighth notes)


I want you...
G-----9------------------------14-------------------12----------------|
D---9-----------10---------14-------------------12--------------------|
A-77-7-777---10-------12-12--12--12-12-12--10-10--10--10-10-10--------|
E----------88--8--888-------------------------------------------------|


G-----9------------------------14-------------------14----------------|
D---9-----------10---------14-------------------14--------------------|
A-77-7-777---10-------12-12--12--12-12-12--12-12--12--12-12-12--------|
E----------88--8--888-------------------------------------------------|


G-----9------------------------14-------------------12----------------|
D---9-----------10---------14-------------------12--------------------|
A-77-7-777---10-------12-12--12--12-12-12--10-10--10--10-10-10--------|
E----------88--8--888-------------------------------------------------|


G-----9------------------------14-------------------14----------------|
D---9-----------10---------14-------------------14--------------------|
A-77-7-777---10-------12-12--12--12-12-12--12-12--12--12-12-12--------|
E----------88--8--888-------------------------------------------------|


To the love...
G-------------------------------------------------------------------|
D-------------------------------------------------------------------|
A-00000033--------00000033--------00000033--------00000033----------|
E---------33333330--------33333330--------33333330--------33333333--|



I believe...
G-----9---------------------------------------------12----------------|
D---9-----------10---------14--12---------------12--------------------|
A-77-7-777---10-------12-12--12--12-12-12--10-10--10--10-10-10--------|
E----------88--8--888-------------------------------------------------|


G-----9------------------------14-------------------12----------------|
D---9-----------10---------14-------------------12--------------------|
A-77-7-777---10-------12-12--12--12-12-12--10-10--10--10-10-10--------|
E----------88--8--888-------------------------------------------------|


G-----9------------------------14-------------------12----------------|
D---9-----------10---------14-------------------12--------------------|
A-77-7-777---10-------12-12--12--12-12-12--10-10--10--10-10-10--------|
E----------88--8--888-------------------------------------------------|


G-----9---------------------------------------------12----------------|
D---9-----------10---------14--12---------------12--------------------|
A-77-7-777---10-------12-12--12--12-12-12--10-10--10--10-10-10--------|
E----------88--8--888-------------------------------------------------|


I'm gonna be there, mother...
G-------------------------------------------------------------------|
D-------------------------------------------------------------------|
A-00000033--------00000033--------00000033--------00000033----------|
E---------33333330--------33333330--------33333330--------33333333--|

REPEAT AND FADE OUT UNTIL END.





Suggest correction
Give kudos to tab author, rate the tab!
1 2 3 4 5
comments
print report bad tab
guest
You may want to rate the tab now too:
select rating
Wanna post a correction for this tab? Suggest correction