Oops, an error
Loading. Please wait.

Until The End Of The World Bass Tab

version 2
version 2

Whole song

Interactive

by U2
1,412 views 3 this week
no commentswrite comment
1 2 3 4 5
2 more votes to show rating
add to favorites
launch autoscroll
font size
0
reset
guitar tuner
Autoscroll
slow
fast
+/-
esc
set tempo
stop
Help us to improve Ultimate-Guitar.com Take our survey!
×
Author
Difficulty
intermediate
ARTIST: U2

TITLE: UNTIL THE END OF THE WORLD (LIVE 360° TOUR)



BY: LUCA GEMMA


standard tuning


RIFF

G |--------------------|---------------------|
D |--------------------|---------------------|
A |1010-1010-10---8-8-8|1010-1010-10-----8-10|
E |--------------------|---------------8-----|

G |--------------------|---------------------|
D |--------------------|---------------------|
A |1010-1010-10---8-8-8|1010-1010-10-----8-10|
E |--------------------|---------------8-----|

G |--------------------|---------------------|
D |--------------------|---------------------|
A |1010-1010-10---8-8-8|1010-1010-10-----8-10|
E |--------------------|---------------8-----|

G |--------------------|---------------------|
D |--------------------|---------------------|
A |1010-1010-10---8-8-8|1010-1010-10-----8-10|
E |--------------------|---------------8-----|

G |--------------------|---------------------|
D |--------------------|---------------------|
A |1010-1010-10---8-8-8|1010-1010-10-----8-10|
E |--------------------|---------------8-----|

G |--------------------|---------------------|
D |--------------------|---------------------|
A |1010-1010-10---8-8-8|1010-1010-10-----8-10|
E |--------------------|---------------8-----|


VERSE

G |---------------|---------------|
D |---------------|---------------|
A |55-55-5-----3-5|88-88-8-----6-8|
E |----------3----|----------6----|

G |--------------------|---------------------|
D |--------------------|---------------------|
A |1010-1010-10---8-8-8|1010-1010-10-----8108|
E |--------------------|---------------8-----|

G |---------------|---------------|
D |---------------|---------------|
A |55-55-5-----3-5|88-88-8-----6-8|
E |----------3----|----------6----|

G |--------------------|---------------------|
D |--------------------|---------------------|
A |1010-1010-10---8-8-8|1010-1010-10-----8108|
E |--------------------|---------------8-----|

G |---------------|---------------|
D |---------------|---------------|
A |88-88-8-----5-8|----------8-5--|
E |----------8----|88-88-8-------8|

G |---------------|-------------|
D |55-55-5-----3-5|88-77-55----8|
A |----------5----|----------8--|
E |---------------|-------------|

G |---------------|---------------|
D |---------------|---------------|
A |88-88-8-----5-8|----------8-5--|
E |----------8----|88-88-8-------8|


RIFF

G |--------------------|---------------------|
D |--------------------|---------------------|
A |1010-1010-10---8-8-8|1010-1010-10-----8-10|
E |--------------------|---------------8-----|

G |--------------------|---------------------|
D |--------------------|---------------------|
A |1010-1010-10---8-8-8|1010-1010-10-----8-10|
E |--------------------|---------------8-----|

VERSE

G |---------------|---------------|
D |---------------|---------------|
A |55-55-5-----3-5|88-88-8-----6-8|
E |----------3----|----------6----|

G |--------------------|---------------------|
D |--------------------|---------------------|
A |1010-1010-10---8-8-8|1010-1010-10-----8-10|
E |--------------------|---------------8-----|

G |---------------|---------------|
D |---------------|---------------|
A |55-55-5-----3-5|88-88-8-----6-8|
E |----------3----|----------6----|

G |--------------------|---------------------|
D |--------------------|---------------------|
A |1010-1010-10---8-8-8|1010-1010-10-----8-10|
E |--------------------|---------------8-----|

G |---------------|---------------|
D |---------------|---------------|
A |88-88-8-----5-8|----------8-5--|
E |----------8----|88-88-8-------8|

G |---------------|-------------|
D |55-55-5-----3-5|88-77-55----8|
A |----------5----|----------8--|
E |---------------|-------------|

G |---------------|---------------|
D |---------------|---------------|
A |88-88-8-----5-8|----------8-5--|
E |----------8----|88-88-8-------8|

RIFF

G |--------------------|---------------------|
D |--------------------|---------------------|
A |1010-1010-10---8-8-8|1010-1010-10-----8-10|
E |--------------------|---------------8-----|

G |--------------------|---------------------|
D |--------------------|---------------------|
A |1010-1010-10---8-8-8|1010-1010-10-----8-10|
E |--------------------|---------------8-----|

SOLO

G |---------------|---------------|
D |---------------|---------------|
A |--------------6|88-88-8-----6-8|
E |66-66-6---6-8--|----------8----|

G |----------------|----------------|
D |----------------|----------------|
A |---------------8|---------------8|
E |88-88-8---8-11--|88-88-8---8-11--|

G |---------------|---------------|
D |---------------|---------------|
A |--------------6|88-88-8-----6-8|
E |66-66-6---6-8--|----------8----|

G |----------------|----------------|
D |----------------|----------------|
A |---------------8|---------------8|
E |88-88-8---8-11--|88-88-8---8-11--|

G |---------------|---------------|
D |---------------|---------------|
A |--------------6|88-88-8-----6-8|
E |66-66-6---6-8--|----------8----|

G |----------------|----------------|
D |----------------|----------------|
A |---------------8|---------------8|
E |88-88-8---8-11--|88-88-8---8-11--|

G |---------------|---------------|
D |---------------|---------------|
A |55-55-5-----353|88-88-8-----686|
E |----------3----|----------6----|

RIFF

G |--------------------|---------------------|
D |--------------------|---------------------|
A |1010-1010-10---8-8-8|1010-1010-10-----8-10|
E |--------------------|---------------8-----|

G |--------------------|---------------------|
D |--------------------|---------------------|
A |1010-1010-10---8-8-8|1010-1010-10-----8-10|
E |--------------------|---------------8-----|

VERSE

G |---------------|---------------|
D |---------------|---------------|
A |55-55-5-----3-5|88-88-8-----6-8|
E |----------3----|----------6----|

G |--------------------|---------------------|
D |--------------------|---------------------|
A |1010-1010-10---8-8-8|1010-1010-10-----8-10|
E |--------------------|---------------8-----|

G |---------------|---------------|
D |---------------|---------------|
A |55-55-5-----3-5|88-88-8-----6-8|
E |----------3----|----------6----|

G |--------------------|---------------------|
D |--------------------|---------------------|
A |1010-1010-10---8-8-8|1010-1010-10-----8-10|
E |--------------------|---------------8-----|

G |-------------|-------------|
D |-------------|-------------|
A |5---5-----3-5|8---8-----6-8|
E |--------3----|--------6----|

G |--------------------|--------------------|
D |--------------------|--------------------|
A |10----10--------8108|10----10--------8108|
E |--------------8-----|--------------8-----|

G |-------------|-------------|
D |-------------|-------------|
A |5---5-----353|8---8-----686|
E |--------3----|--------6----|

G |--------------------|--------------------|
D |--------------------|--------------------|
A |10----10--------8108|10----10--------8108|
E |--------------8-----|--------------8-----|

G |---------------|---------------|
D |---------------|---------------|
A |88-88-8-----5-8|----------8-5--|
E |----------8----|88-88-8-------8|

G |---------------|-------------|
D |55-55-5-----3-5|88-77-55----8|
A |----------5----|----------8--|
E |---------------|-------------|

G |---------------|---------------|
D |---------------|---------------|
A |88-88-8-----5-8|----------8-5--|
E |----------8----|88-88-8-------8|

RIFF

G |--------------------|---------------------|
D |--------------------|---------------------|
A |1010-1010-10---8-8-8|1010-1010-10-----8-10|
E |--------------------|---------------8-----|

G |--------------------|---------------------|
D |--------------------|---------------------|
A |1010-1010-10---8-8-8|1010-1010-10-----8-10|
E |--------------------|---------------8-----|

G |--------------------|---------------------|
D |--------------------|---------------10-8-7|
A |1010-1010-10---8-8-8|1010-1010-10---------|
E |--------------------|---------------------|

G |--------------------|---------------------|
D |--------------------|---------------10-8-7|
A |1010-1010-10---8-8-8|1010-1010-10---------|
E |--------------------|---------------------|

G |--------------------|---------------------|
D |--------------------|---------------10-8-7|
A |1010-1010-10---8-8-8|1010-1010-10---------|
E |--------------------|---------------------|

G |--------------------|---------------------|
D |--------------------|---------------10-8-7|
A |1010-1010-10---8-8-8|1010-1010-10---------|
E |--------------------|---------------------|

G |---------------|---------------|
D |---------------|---------------|
A |---------------|----------3-1-0|
E |33-33-3---1-1-1|33-33-3--------|

G |---------------|---------------|
D |---------------|---------------|
A |---------------|----------3-1-0|
E |33-33-3---1-1-1|33-33-3--------|

G |---------------|---------------|
D |---------------|---------------|
A |---------------|----------3-1-0|
E |33-33-3---1-1-1|33-33-3--------|

G |---------------|---------------|
D |---------------|---------------|
A |---------------|----------3-1-0|
E |33-33-3---1-1-1|33-33-3--------|

G |---------------|---------------|
D |---------------|---------------|
A |---------------|----------3-1-0|
E |33-33-3---1-1-1|33-33-3--------|

G |---------------|---------------|
D |---------------|---------------|
A |---------------|----------3-1-0|
E |33-33-3---1-1-1|33-33-3--------|

END

G |---------------|---------------|
D |---------------|---------------|
A |---------------|---------------|
E |3~~------------|333333333333333|

G |---------------|---------------|
D |---------------|---------------|
A |---------------|---------------|
E |333333333333333|333333333333333|

G |---------------|---------------|
D |---------------|---------------|
A |---------------|---------------|
E |15~~~~~--------|3--------------|

Question, Comments, Corrections shall be sent to gemma.luca@gmail.com
Suggest correction
Give kudos to tab author, rate the tab!
1 2 3 4 5
comments
print report bad tab
guest
You may want to rate the tab now too:
select rating
Wanna post a correction for this tab? Suggest correction