Oops, an error
Loading. Please wait.

Until The End Of The World Tab

version 2
version 2

Whole song

Interactive

by U2
26,330 views 60 this week
6 commentsread comments
1 2 3 4 5
x 11
add to favorites
launch autoscroll
font size
0
reset
how to read this tab
guitar tuner
Autoscroll
slow
fast
+/-
esc
set tempo
stop
Help us to improve Ultimate-Guitar.com Take our survey!
×
Author
Difficulty
advanced
[INTRO]
(Begins with the bass and drums but you can play just this as a cover.
important to keep the E string open
distortion)
e|-xx-xx-xx-xxxx-----------------------------------------------|
B|-xx-xx-xx-xxxx-----------------------------------------------|
G|-xx-xx-xx-xxxx-----------------------------------------------| X3
D|-xx-xx-xx-xxxx-----------------------------------------------|
A|-xx-xx-xx-xxxx-----------------------------------------------|
E|-00-00-00-0000-3/15------------------------------------------|

(Play that 3 times and the 4th time speed up a little beet and play this similar riff)
e|---xx-xx-xx-xxxxx-xxxxx-xxxxx----------------------------|
B|---xx-xx-xx-xxxxx-xxxxx-xxxxx----------------------------|
G|---xx-xx-xx-xxxxx-xxxxx-xxxxx----------------------------|
D|---xx-xx-xx-xxxxx-xxxxx-xxxxx----------------------------|
A|---xx-xx-xx-xxxxx-xxxxx-xxxxx----------------------------|
E|---00-00-00-00000-00000-00000----------------------------|

(Now the main riff, (basecilly E and Esus4) timing is really important even more if you
not using a delay pedal. Seems)
(hard but if you put the finger correctly is easy)

(PUT MORE DISTORTION ALMOST 70%)
e|----------------------------------------------------------|
B|-9999-99-99-9109109-9999-99-99-9109109-9999-99-99-9109109-|
G|-9999-99-99-9-99-99-9999-99-99-9-99-99-9999-99-99-9-99-99-|
D|-9999-99-99-9-99-99-9999-99-99-9-99-99-9999-99-99-9-99-99-|
A|-7777-77-77-7-77-77-7777-77-77-7-77-77-7777-77-77-7-77-77-|
E|----------------------------------------------------------|

e|--------------------------------------------------------|
B|-9999xx-------------------------------------------------|
G|-9999xx9..7..-------------------------------------------|
D|-9999xx9..7..-------------------------------------------|
A|-7777xx7..5..5/4/2...-----------------------------------|
E|--------------------------------------------------------|

[Verse 1]
50% dist.
(HAVEN`T SEEN YOU  IN QUIET A WHILE I WAS DOWN THE HALL)
    Bm                D                Em
e|--2..-------2---xx--2-2..-----2---xx--7..7------xx77-----------|
B|--3..-------3---xx--3-3..---3-3---xx--8..8------xx88-----------|
G|--4..-------4---xx--2-2..---2-2---xx--9..9------xx99-----------|
D|--4..-------4---xx--0-0..-----0---xx--9..9------xx99-----------|
A|--2..-------2---xx----------------xx--7..9------xx77-----------|
E|----------------xx----------------xx---------------------------|

(manage to move your fingers quick, and play this quit fast.)
(JUST PASSING TIME)
    Esus4
e|---7-7-7-7-7-7-7-7-7-7------------------------------------|
B|---1010101010108-8-8-8------------------------------------|
G|---9-9-9-9-9-9-9-9-9-9------------------------------------|
D|---7-7-7-7-7-7-7-7-7-7------------------------------------|
A|----------------------------------------------------------|
E|----------------------------------------------------------|

(verse 2 varies a little.)
(LAST TIME WE MET, IT WAS A LOW LIT ROOM)
     Bm               D
e|---2--2--2----------3---2--2-----xx--xx---|
B|---3--3----3--------2---3----3---xx--xx---|
G|---4--4------4------0---2-----2--xx--xx---|
D|---4--4--------4--------0--------xx--xx---|
A|---2-------------2------------------------|
E|------------------------------------------|

(we were as close together as a bride and a groom)
    Em                        Esus4
e|-----7..7------xx7-7--------7-7-7-7-7-7-7-7-7-7----0-|
B|-----8..8------xx8-8--------1010101010108-8-8-8----0-|
G|-----9..9------xx9-9--------9-9-9-9-9-9-9-9-9-9----0-|
D|-----9..9------xx9-9--------7-7-7-7-7-7-7-7-7-7----0-|
A|-----7..9------xx7-7---------------------------------|
E|-----------------------------------------------------|
 (while going from Esus4 to D5 strum open the strings so sound doesn`t stop)
low the distortion a little bit down to like 30%
(WE ATE THE FOOD, WE DRANK THE WINE, EVERYBODY IS HAVING A GOOD TIME)
   D5              Asus2               Em               G
e|-----0--------------------------------0------0----0----3--3---0-0-0-----|
B|-3-----3--------------0-0-------------0------0----0----3--3---3-3-3-----|
G|-2-------2-------2--------2-2---------0------0----0----0--0---0-0-0-----|
D|-0-0-------0-----2------------2-2-----2------2---------0----0-----------|
A|-------------0---0--0-------------0---2------2---------2----2-----------|
E|--------------------------------------0------0---------3----3-----------|

(EXCEPT YOU, YOU ARE TALKING ABOUT THE END OF THE WORLD)
(    D5          Asus2     A       Asus2        MAIN RIFF)
e|--0----0---------------0--0--0---------------------------|
B|--3--3---3--------0-0--2--2--2--0--0--0------------------|
G|--2--2-----2--2-2-2-2--2--2--2--2--2--2--2-2-------------|
D|--0--0--------2-2-2-2--2--2--2--2--2--2--2-2-------------|
A|--------------0-0-0-0--0--0--0--0--0--0--0-0-------------|
E|---------------------------------------------------------|

(is really important when to start the main riff, should be
right AFTER UNTIL THE END OF THE(MAIN RIFF)WORLD
PUT MORE DISTORTION ALMOST 70%)

e|----------------------------------------------------------|
B|-9999-99-99-9109109-9999-99-99-9109109-9999-99-99-9109109-|
G|-9999-99-99-9-99-99-9999-99-99-9-99-99-9999-99-99-9-99-99-|
D|-9999-99-99-9-99-99-9999-99-99-9-99-99-9999-99-99-9-99-99-|
A|-7777-77-77-7-77-77-7777-77-77-7-77-77-7777-77-77-7-77-77-|
E|----------------------------------------------------------|

e|--------------------------------------------------------|
B|-9999xx-------------------------------------------------|
G|-9999xx9..7..-------------------------------------------|
D|-9999xx9..7..-------------------------------------------|
A|-7777xx7..5..5/4/2...-----------------------------------|
E|--------------------------------------------------------|

verse 3 is different as well, pretty much 5thchords just playing
the A and the G srting, you can either mute or not play the D string,
I don`t play it but sometimes y add a xxxxx on the strumming. Also don`t
be so regular with the strumming add some rythm

(I TOOK THE MONEY, I SPIKE YOUR DRINK, YOU MISS TO MUCH THIS DAYS)
   B5            C#5/D5               D5/E5      f#5      E5
e|----------------------------------------------------------------|
B|----------------------------------------------------------------|
G|--4--4------4----6/7--7--7--7-----7--7/9--9----11-11-11-9--99---|
D|----------------------------------------------------------------|
A|--2--2------2----4/5--5--5--5-----5--5/7--7----9--9--9--7--77---|
E|----------------------------------------------------------------|

(IF YOU STOP TO THINK)
    D5    E5   F#5     E5
e|----------------------------|
B|----------------------------|
G|-7-7--9-9-9-9-111111-9-99-9-|
D|----------------------------|
A|-5-5--7-7-7-7-9-9-9--7-77-7-|
E|----------------------------|

(YOU LEAD ME ON  WITH THOSE INOCENT EYES!!)
   B5            C#5/D5               D5/E5
e|----------------------------------------------|
B|----------------------------------------------|
G|--4--4------4----6/7--7--7--7-----7--7/9--9---|
D|----------------------------------------------|
A|--2--2------2----4/5--5--5--5-----5--5/7--7---|
E|----------------------------------------------|

(YOU KNOW I LIKE THE ELEMENT OF SURPRISE)
   f#5      E5      D5    E5   F#5     E5
e|---------------------------------------------|
B|---------------------------------------------|
G|-11-11-11-9--99---7-7--9-9-9-9-111111-9-99-9-|
D|---------------------------------------------|
A|-9--9--9--7--77---5-5--7-7-7-7-9-9-9--7-77-7-|
E|---------------------------------------------|

(This pre chorus is similar to the first one and remember while aproaching to ...until)
(end...put more distortion and strum harder!!!!!! like it would be the end of the world)
[IN THE GARDEN  I WAS PLAYING THE TOUGH.I KISS YOUR LIPS AND BROKE YOUR HEART]

   D5              Asus2               Em               G
e|-----0--------------------------------0------0----0----3--3---0-0-0-----|
B|-3-----3--------------0-0-------------0------0----0----3--3---3-3-3-----|
G|-2-------2-------2--------2-2---------0------0----0----0--0---0-0-0-----|
D|-0-0-------0-----2------------2-2-----2------2---------0----0-----------|
A|-------------0---0--0-------------0---2------2---------2----2-----------|
E|--------------------------------------0------0---------3----3-----------|

(YOU!! YOU ARE ACTING, LIKE IT`S THE END OF THE WORLD)
   D5          Asus2     A       Asus2        MAIN RIFF
e|--0----0---------------0--0--0---------------------------|
B|--3--3---3--------0-0--2--2--2--0--0--0------------------|
G|--2--2-----2--2-2-2-2--2--2--2--2--2--2--2-2-------------|
D|--0--0--------2-2-2-2--2--2--2--2--2--2--2-2-------------|
A|--------------0-0-0-0--0--0--0--0--0--0--0-0-------------|
E|---------------------------------------------------------|

(PUT MORE DISTORTION ALMOST 70%)
e|----------------------------------------------------------|
B|-9999-99-99-9109109-9999-99-99-9109109-9999-99-99-9109109-|
G|-9999-99-99-9-99-99-9999-99-99-9-99-99-9999-99-99-9-99-99-|
D|-9999-99-99-9-99-99-9999-99-99-9-99-99-9999-99-99-9-99-99-|
A|-7777-77-77-7-77-77-7777-77-77-7-77-77-7777-77-77-7-77-77-|
E|----------------------------------------------------------|

(ACTUNG BABY!!!! NOW THIS!!)
e|-------------------------|
B|-99999999999999----------|
G|-99999999999999----------|
D|-99999999999999----------|
A|-77777777777777----------|
E|-------------------------|

(AND KNOW OF COURSE!!!!! EDGE`S KILLERRRRR SOLO!!!!!!!!)
(FOCUS 90% OF THE ATTENTION ON THE B STRING BUT ADD SOME FUN STUFF ASWELL ON THE NEARBY)
(also try to play really fast the "hamer/pull/slide part" don`t stop in the middle of those)
e|----------------------------------------------------------------0-0--------|
B|--15--15h17p15/14--14h15p14/12-12-10-12p10/8-8/7-7h8p7/5/3/5vv3-5-5fb3h5---|
G|---------------------------------------------------------------------------|
D|---------------------------------------------------------------------------|
A|---------------------------------------------------------------------------|
E|---------------------------------------------------------------------------|

e|-------------------------------------------------------------------|
B|--15--15h17p15/14--14h15p14/12-12-10-12p10/8-8/7-7h8p7/5/3/5vv-----|
G|-------------------------------------------------------------------|
D|-------------------------------------------------------------------|
A|-------------------------------------------------------------------|
E|-------------------------------------------------------------------|

(really quick this)
e|-0-0-0----0-0-0------------------------------------------------------------|
B|--5-5-3/5v-5-5-3/5-5-5h7h8p7p5v5-5-5h7h8p7p5v5v--see below quick-----------|
G|---------------------------------------------------------------------------|
D|---------------------------------------------------------------------------|
A|---------------------------------------------------------------------------|
E|---------------------------------------------------------------------------|

e|------------------------------------------------------|
B|-5h7h8p7p5v5/3h5-3h5-3h5-8/7-3v5v7v8v-----------------|
G|------------------------------------------------------|
D|------------------------------------------------------|
A|------------------------------------------------------|
E|------------------------------------------------------|

(of course main riff now!!!!)
e|----------------------------------------------------------|
B|-9999-99-99-9109109-9999-99-99-9109109-9999-99-99-9109109-|
G|-9999-99-99-9-99-99-9999-99-99-9-99-99-9999-99-99-9-99-99-|
D|-9999-99-99-9-99-99-9999-99-99-9-99-99-9999-99-99-9-99-99-|
A|-7777-77-77-7-77-77-7777-77-77-7-77-77-7777-77-77-7-77-77-|
E|----------------------------------------------------------|

e|--------------------------------------------------------|
B|-9999xx-------------------------------------------------|
G|-9999xx9..7..-------------------------------------------|
D|-9999xx9..7..-------------------------------------------|
A|-7777xx7..5..5/4/2...-----------------------------------|
E|--------------------------------------------------------|

(AND KNOW 100% DISTORTION AND........ HARMONICSSSSSS)
(ALL OF THE FOLLOWING ARE HARMONICS, AND SOME ARE "HARMONICS CHORDS")
  love loveeeee love  loveeeee love loveeeeeeee
e|------------7----7----7---7------------------7----------|
B|-7----7----7----7------7----7--7-------7-----------7----|
G|-7--7----7------7---7-------7---7---7----7---7---7------|
D|-7--------------7-----------7-----7----7---7------------|
A|------------------------7-------------------------------|
E|--------------------------------------------------------|

(AS YOU SEE IS 90% IMPOVISE THE RYTHM AND PATTERN)
  love loveeeee love  loveeeee love loveeeeeeee
e|------------7----7----7---7------------------7----------|
B|-7----7----7----7------7----7--7-------7-----------7----|
G|-7--7----7------7---7-------7---7---7----7---7---7------|
D|-7--------------7-----------7-----7----7---7------------|
A|------------------------7-------------------------------|
E|--------------------------------------------------------|

(IN MY DREAMS, I WAS DROWN IN MY SURROWSSS)
e|------------7----7----7---7------------------7----------|
B|-7----7----7----7------7----7--7-------7-----------7----|
G|-7--7----7------7---7-------7---7---7----7---7---7------|
D|-7--------------7-----------7-----7----7---7------------|
A|------------------------7-------------------------------|
E|--------------------------------------------------------|

(BUT MY SORROWS THEY LEARNT TO SWIM)
e|------------7----7----7---7------------------7----------|
B|-7----7----7----7------7----7--7-------7-----------7----|
G|-7--7----7------7---7-------7---7---7----7---7---7------|
D|-7--------------7-----------7-----7----7---7------------|
A|------------------------7-------------------------------|
E|--------------------------------------------------------|

(SURROUND ON ME, GOING DOWN ON ME, SPILLING OVER THE DRINK)
e|------------7----7----7---7------------------7----------|
B|-7----7----7----7------7----7--7-------7-----------7----|
G|-7--7----7------7---7-------7---7---7----7---7---7------|
D|-7--------------7-----------7-----7----7---7------------|
A|------------------------7-------------------------------|
E|--------------------------------------------------------|

(WAVES OF REGRETS  WAVES OF JOY  I REACH OUT FOR THE ONE I TRY TO DESTROY)
  D5              Asus2               Em               G
e|-----0--------------------------------0------0----0----3--3---0-0-0-----|
B|-3-----3--------------0-0-------------0------0----0----3--3---3-3-3-----|
G|-2-------2-------2--------2-2---------0------0----0----0--0---0-0-0-----|
D|-0-0-------0-----2------------2-2-----2------2---------0----0-----------|
A|-------------0---0--0-------------0---2------2---------2----2-----------|
E|--------------------------------------0------0---------3----3-----------|

(YOU, YOU SAID YOU`LL WAIT UNTIL THE END OF THE WORLD!!!!)
   D5          Asus2     A       Asus2        MAIN RIFF
e|--0----0---------------0--0--0---------------------------|
B|--3--3---3--------0-0--2--2--2--0--0--0------------------|
G|--2--2-----2--2-2-2-2--2--2--2--2--2--2--2-2-------------|
D|--0--0--------2-2-2-2--2--2--2--2--2--2--2-2-------------|
A|--------------0-0-0-0--0--0--0--0--0--0--0-0-------------|
E|---------------------------------------------------------|

(OF COURSE 100% DISTORTION, REPEAT THE FIRST PART OF THE RIFF)
e|----------------------------------------------------------|
B|-9999-99-99-9109109-9999-99-99-9109109-9999-99-99-9109109-|
G|-9999-99-99-9-99-99-9999-99-99-9-99-99-9999-99-99-9-99-99-|
D|-9999-99-99-9-99-99-9999-99-99-9-99-99-9999-99-99-9-99-99-|
A|-7777-77-77-7-77-77-7777-77-77-7-77-77-7777-77-77-7-77-77-|
E|----------------------------------------------------------|

e|----------------------------------------------------------|
B|-9999-99-99-9109109-9999-99-99-9109109-9999-99-99-9109109-|
G|-9999-99-99-9-99-99-9999-99-99-9-99-99-9999-99-99-9-99-99-|
D|-9999-99-99-9-99-99-9999-99-99-9-99-99-9999-99-99-9-99-99-|
A|-7777-77-77-7-77-77-7777-77-77-7-77-77-7777-77-77-7-77-77-|
E|----------------------------------------------------------|

(NOW YOU CAN EIHTER CHOOSE TO ENDINGS, THE EASY)
e|--------------------------------------------------------|
B|-9999xx-------------------------------------------------|
G|-9999xx9..7..7/6/4...-----------------------------------|
D|-9999xx9..7..7/6/4...-----------------------------------|
A|-7777xx7..5..5/4/2...-----------------------------------|
E|--------------------------------------------------------|

OR THE HARDER ONE!!!!!
IF SO IMPROVISE OVER THIS!!
110% DISTORTION AND EVEN THOUGH I JUST PLAY THE FIRST 2 STRING MUTE AND STRUM THE OTHERS
SO YOU DON`T GET THAT SILENCE SENSATION OF 1 GUITAR.

e|--------------------------------------------------|
B|--------9----8VV-15/8V----------9----8VVV-1515/88-|
G|-------99-7H9------------------99-7H9-------------|
D|-------9-----------------------9------------------|
A|-9-7H9-9----------------9-97H9-9------------------|
E|-0-000------------------0-0000--------------------|

e|--------------------------------------------------|
B|--------9----8VV-15/8V----------9----8VVV-1515/88-|
G|-------99-7H9------------------99-7H9-------------|
D|-------9-----------------------9------------------|
A|-9-7H9-9----------------9-97H9-9------------------|
E|-0-000------------------0-0000--------------------|

e|------------------------------------------------------|
B|--------9----8VV-15/8V---9----8-------8-----8----8----|
G|-------99-7H9-----------99-7H9--99-7H9--97H9--7H9X----|
D|-------9----------------99------99-----99-----XXXX----|
A|-9-7H9-9----------------9-------9------9------XXXX----|
E|-0-000------------------------------------------------|

[FINISH WITH]
e|--------------------------------------------------------|
B|--99-77-6-4VVVVVVV--------------------------------------|
G|--99-77-6-4VVVVVVV--------------------------------------|
D|--99-77-6-4VVVVVVV--------------------------------------|
A|--77-55-4-2VVVVVVV--------------------------------------|
E|--------------------------------------------------------|

************************************

| x  Dead note
| /  Slide up
| h  Hammer-on
| p  Pull-off

************************************
Suggest correction
comments
print report bad tab
6 comments total. Showing first comments.
0 reply
U2-the edge 10 Aug 21, 2006 12:05 PM

wonderfull work!! great tab!!!

0 reply
moneyman40 10 Oct 12, 2006 10:32 PM

yeah good!!!!!\m/

0 reply
moneyman40 10 Oct 16, 2006 02:48 PM

dude this like my favorite song thanks a million

guest
You may want to rate the tab now too:
select rating
Wanna post a correction for this tab? Suggest correction