Oops, an error
Loading. Please wait.

Vertigo Bass Tab

version 1
version 1

Whole song

30,251 views 36 this week
5 commentsread comments
1 2 3 4 5
x 9
add to favorites
launch autoscroll
font size
0
reset
guitar tuner
backing track
0:00
0:00
×
Best way to learn
"Vertigo"
Autoscroll
slow
fast
+/-
esc
set tempo
stop
[Intro]
G|-------------------------------|
D|-------------------------------|
A|--5-77-5-7-5-7-----------------|
E|---------------0--5555433------|

 [Verse]
G|-------------------------------|
D|-------------------------------|
A|--5-77-5-7-5-7-----------------|
E|---------------0--5555433------|

[Chorus]
G|-------------------------------|
D|-------------------------------|
A|--7(x8)-5(x8)------------------|
E|---------------3(x8)--5(x8)----|

[Bridge 1]
G|--------|
D|--------|
A|--------|
E|----5---|  play speed

[Solo]
G|-------------------------------|
D|-------------------------------|
A|--5-77-5-7-5-7-----------------|
E|---------------0--5555433------|

[Bridge 2]
G|-------------------|
D|-------------------|
A|--5-7--5-77-57-----|
E|-------------------|
Suggest correction
comments
print report bad tab
5 comments total. Showing first comments.
0 reply
Bass-A-holic 10 Nov 02, 2004 07:00 PM

I could be wrong but when you play 5775757 rather then playing 0 on E, it sounds better to play it on A.

0 reply
BaSs_PiCkEr 10 Nov 02, 2004 07:00 PM

Yah E is a bit too deep

0 reply
dude1400 10 Dec 31, 2004 07:00 PM

it changes in the verse the second time to something like
G----------------------
D-----------------7777655-----
A---577-5-7-5-7-------------
E---------------0-------

guest
You may want to rate the tab now too:
select rating
Wanna post a correction for this tab? Suggest correction