Oops, an error
Loading. Please wait.

Vertigo Bass

version 2
version 2

Whole song

by U2
40,844 views 36 this week
5 commentsread comments
1 2 3 4 5
x 29
add to favorites
launch autoscroll
font size
0
reset
guitar tuner
backing track
0:00
0:00
×
Best way to learn
"Vertigo"
Autoscroll
slow
fast
+/-
esc
set tempo
stop
Drum Intro

[Main Riff]

G|-----------------------------------||-----------------------------------|
D|-----------------------------------||---------------------7-7-7-7-6-5---|
A|-5-7-7-5-7-7-5---------------------||-5-7-7-5-7-7-5---------------------|
E|---------------0-----5-5-5-5-4-3---||---------------0-------------------|(x2)

[Verse 1]

G|-----------------------------------||-----------------------------------|
D|-----------------------------------||---------------------7-7-7-7-6-5---|
A|-5-7-7-5-7-7-5---------------------||-5-7-7-5-7-7-5---------------------|
E|---------------0-----5-5-5-5-4-3---||---------------0-------------------|(x2)

[Chorus]

G|---------------------------------||---------------------------------|
D|---------------------------------||---------------------------------|
A|-7-7-7-7-7-7-7-7-/-5-5-5-5-5-5-5-||---------------------------------|
E|---------------------------------||-3-3-3-3-3-3-3-3-/-5-5-5-5-5-5-5-|(x2)

[Main Riff]

G|-----------------------------------||-----------------------------------|
D|-----------------------------------||---------------------7-7-7-7-6-5---|
A|-5-7-7-5-7-7-5---------------------||-5-7-7-5-7-7-5---------------------|
E|---------------0-----5-5-5-5-4-3---||---------------0-------------------|

[Verse 2]

G|-----------------------------------||-----------------------------------|
D|-----------------------------------||---------------------7-7-7-7-6-5---|
A|-5-7-7-5-7-7-5---------------------||-5-7-7-5-7-7-5---------------------|
E|---------------0-----5-5-5-5-4-3---||---------------0-------------------|(x4)

[Chorus]

G|---------------------------------||---------------------------------|
D|---------------------------------||---------------------------------|
A|-7-7-7-7-7-7-7-7-/-5-5-5-5-5-5-5-||---------------------------------|
E|---------------------------------||-3-3-3-3-3-3-3-3-/-5-5-5-5-5-5-5-|(x2)

[Bridge]

G|-----------------|
D|-7-7-7-7-7-7-7-7-|
A|-----------------|
E|-----------------|(x3)

[Solo]

G|-----------------------------------||-----------------------------------|
D|-----------------------------------||---------------------7-7-7-7-6-5---|
A|-5-7-7-5-7-7-5---------------------||-5-7-7-5-7-7-5---------------------|
E|---------------0-----5-5-5-5-4-3---||---------------0-------------------|(x2)

[Bridge 2]

G|--------------------------------------------|
D|--------------------------------------------|
A|-5---7-7----5---7-5-7--5---7-7----5-7-5-4-3-|
E|--------------------------------------------|

G|--------------------------------------------|
D|--------------------------------------------|
A|-5---7-7----5---7-5-7--5---7-7-5------------|
E|--------------------------------------------|

[Chorus]

G|---------------------------------||---------------------------------|
D|---------------------------------||---------------------------------|
A|-7-7-7-7-7-7-7-7-/-5-5-5-5-5-5-5-||---------------------------------|
E|---------------------------------||-3-3-3-3-3-3-3-3-/-5-5-5-5-5-5-5-|(x4)

[Outro]

G|-----------------------------------||-----------------------------------|
D|-----------------------------------||---------------------7-7-7-7-6-5---|
A|-5-7-7-5-7-7-5---------------------||-5-7-7-5-7-7-5---------------------|
E|---------------0-----5-5-5-5-4-3---||---------------0-------------------|(x2)



************************************

| /  Slide up

************************************
Suggest correction
comments
print report bad tab
5 comments total. Showing first comments.
0 reply
dude1400 10 Jan 01, 2005 07:00 PM

looks good a lot better then the one b4

0 reply
6strings05 10 Mar 19, 2005 07:00 PM

awesome tab!

0 reply
ezzasharp666 31 Aug 17, 2008 10:38 AM

this tab is wrong if u listen closely after the chorus you play the 2nd part of the main riff twice. other than that its a damn nice tab and easy to play to :P

guest
You may want to rate the tab now too:
select rating
Wanna post a correction for this tab? Suggest correction