Oops, an error
Loading. Please wait.
We have an official Vertigo tab made by UG professional guitarists. Check out the tab »
×
by U2
27,427 views 27 this week
16 commentsread comments
1 2 3 4 5
x 34
add to favorites
×
Save as Personal and add changes to this tab that will be seen only by you. Learn more ›
×
You can save this tab as Personal to edit and correct it or add notes. All changes will be seen only by you. Learn more »
launch autoscroll
font size
0
reset
how to read this tab
guitar tuner
backing track
0:00
0:00
edit
Autoscroll
slow
fast
+/-
esc
set tempo
stop
Author
I think this is the correct version for this tab, but I’m not completely positive so 
rate or comment me so I can see how I did.

Update-Changed The Notes to Harmonics that needed to be 4/8/07

x=dead note
/=slide up
\=slide down
H=harmonics

Tuning: Standard

“ Uno, Dos, tres, Cartorce, Cartorce”

E|-x-------x-------x---x---|-x-------x-------x---x---|
B|-x-------x-------x---x---|-x-------x-------x---x---|
G|-x-------x-------x---x---|-x-------x-------x---x---|
D|-x-------x-------x---x---|-x-------x-------x---x---|
A|-x-------x-------x---x---|-x-------x-------x---x---|
E|-x-------x-------x---x---|-x-------x-------x---x---|x2


E|--------------------------------------|
B|--------------------------------------|
G|-7/-9-9—-7/-9-9—-7/-9-----------------|
D|-7/-9-9—-7/-9-9—-7/-9-7-7-7-7-7-7-6-5-|
A|-5/-7-7—-5/-7-7-—5/-7-7-7-7-7-7-7-6-5-|
E|----------------------5-5-5-5-5-5-4-3-|x4

  Lights    go down it’s dark, the jungle is your head
E|--------x-------------------------------------------x-|
B|--------x-------------------------------------------x-|
G|--------x-------------------------------------------x-|
D|--------x-------------------------------------------x-|
A|--------x-------------------------------------------x-|
E|--------x-------------------------------------------x-|

   Can’t rule   your heart           I’m feeling so much strong  er
E|------------x------------x—---x—x---------------------------x---|
B|------------x------------x—---x—x---------------------------x---|
G|------------x------------x—---x—x---------------------------x---|
D|------------x------------x—---x—x---------------------------x---|
A|------------x------------x—---x—x---------------------------x---|
E|------------x------------x—---x—x---------------------------x---|

  Than    I thought  your eyes are wide    And though your soul
E|-----x-----------x-------------------x—x---------------------x-|
B|-----x-----------x-------------------x—x---------------------x-|
G|-----x-----------x-------------------x—x---------------------x-|
D|-----x-----------x-------------------x—x---------------------x-|
A|-----x-----------x-------------------x—x---------------------x-|
E|-----x-----------x-------------------x—x---------------------x-|

  It can’t  be bought  your mind can wander
E|--------x----------x------------------x-x-|
B|--------x----------x------------------x-x-|
G|--------x----------x------------------x-x-|
D|--------x----------x------------------x-x-|
A|--------x----------x------------------x-x-|
E|--------x----------x------------------x-x-|

Chorus
E|-------------------------------------------|
B|-------------------------------------------|
G|-9—-9—-9-9—-7—-7—-7-7----------------------|
D|-9—-9—-9-9—-7—-7—-7-7-5—-5—-5-5—-7—-7—-7-7-|
A|-7—-7—-7-7—-5—-5—-5-5-5—-5—-5-5—-7—-7—-7-7-|
E|----------------------3—-3—-3-3—-5—-5—-5-5-|x2


E|--------------------------------------|
B|--------------------------------------|
G|-7/-9-9—-7/-9-9—-7/-9-----------------|
D|-7/-9-9—-7/-9-9—-7/-9-7-7-7-7-7-7-6-5-|
A|-5/-7-7—-5/-7-7-—5/-7-7-7-7-7-7-7-6-5-|
E|----------------------5-5-5-5-5-5-4-3-|x2


 The night   is full of holes ,the bullets rip the sky
E|--------x-------------------------------------------x-|
B|--------x-------------------------------------------x-|
G|--------x-------------------------------------------x-|
D|--------x-------------------------------------------x-|
A|--------x-------------------------------------------x-|
E|--------x-------------------------------------------x-|

        Of ink   with gold          They twinkle as the boys
E|------------x------------x—---x—x---------------------------x---|
B|------------x------------x—---x—x---------------------------x---|
G|------------x------------x—---x—x---------------------------x---|
D|------------x------------x—---x—x---------------------------x---|
A|------------x------------x—---x—x---------------------------x---|
E|------------x------------x—---x—x---------------------------x---|

  They rock and roll          They know that they can’t dacne
E|-----x-----------x-------------------x—x---------------------x-|
B|-----x-----------x-------------------x—x---------------------x-|
G|-----x-----------x-------------------x—x---------------------x-|
D|-----x-----------x-------------------x—x---------------------x-|
A|-----x-----------x-------------------x—x---------------------x-|
E|-----x-----------x-------------------x—x---------------------x-|

  At least  they know
E|--------x----------x-|
B|--------x----------x-|
G|--------x----------x-|
D|--------x----------x-|
A|--------x----------x-|
E|--------x----------x-|


E|-----12H----10----10--------12H----10----10-----------------|
B|--------12H-----10-----10-------12H-----10-----10-----------|
G|------------------------------------------------------------|
D|------------------------------------------------------------|
A|------------------------------------------------------------|
E|------------------------------------------------------------|x3

Chorus
E|-------------------------------------------|
B|-------------------------------------------|
G|-9—-9—-9-9—-7—-7—-7-7----------------------|
D|-9—-9—-9-9—-7—-7—-7-7-5—-5—-5-5—-7—-7—-7-7-|
A|-7—-7—-7-7—-5—-5—-5-5-5—-5—-5-5—-7—-7—-7-7-|
E|----------------------3—-3—-3-3—-5—-5—-5-5-|x2

E|--------------------------------------|
B|--------------------------------------|
G|-7/-9-9—-7/-9-9—-7/-9-----------------|
D|-7/-9-9—-7/-9-9—-7/-9-7-7-7-7-7-7-6-5-|
A|-5/-7-7—-5/-7-7-—5/-7-7-7-7-7-7-7-6-5-|
E|----------------------5-5-5-5-5-5-4-3-|x2


E|--------------------|
B|--------------------|
G|-5----9----7--------|
D|-5----9----7--------|
A|-3----7----5--------|
E|-3----7----5--------|x4

E|---------------------------------------|
B|-10-10-10-9—-9—-9----------------------|
G|-9—-9—-9—-9—-9—-9—-9—-9--9—-10—-10—-10-|
D|-------------------8—-8—-8—-10—-10—-10-|
A|---------------------------------------|
E|---------------------------------------|

go back to Chorus
And that’s about it I couldn’t tab the part “all of this, all of this can be yours” so 
can add-on but that’s about all I really know enjoy please rate.
Suggest correction
Creating personal tab
Creating personal tab
You can edit any tab online and save it as your Personal.

You can edit, replace or remove any tab part or add personal notes – all changes will be seen only by you.

Personal tabs can be accessed anytime from any device, even offline.
Learn more »
comments
print report bad tab
16 comments total. Showing first comments.
+4 reply
Gtdude 10 Dec 31, 2006 04:14 PM

Pretty good but this part
E|-----12----10----10--------12----10----10-----------------|
B|--------10-----10-----10-------10-----10-----10-----------|
G|----------------------------------------------------------|
D|----------------------------------------------------------|
A|----------------------------------------------------------|
E|----------------------------------------------------------|x3

is wrong. There are supposed to be harmonics on the 12th fret.
This is how i think it is played and i am pretty sure that is is right.
|-----12H----10----10--------12H----10----10-----------------|
B|--------12H-----12-----12-------12H-----12-----12-----------|
G|----------------------------------------------------------|
D|----------------------------------------------------------|
A|----------------------------------------------------------|
E|----------------------------------------------------------|x3
Otherwise a good tab!
E

+1 reply
jimi4456 10 Feb 13, 2007 11:59 AM

great tab man

0 reply
nml6493 306 Mar 20, 2007 05:02 PM

thanks man ill update it right now

guest
You may want to rate the tab now too:
select rating
Wanna post a correction for this tab? Suggest correction