Oops, an error
Loading. Please wait.

Where The Streets Have No Name tab

version 4
version 4

Whole song

Interactive

by U2
865 views 9 this week
no commentswrite comment
1 2 3 4 5
2 more votes to show rating
add to favorites
×
Save as Personal and add changes to this tab that will be seen only by you. Learn more ›
×
You can save this tab as Personal to edit and correct it or add notes. All changes will be seen only by you. Learn more »
launch autoscroll
font size
0
reset
how to read this tab
guitar tuner
backing track
0:00
0:00
edit
Autoscroll
slow
fast
+/-
esc
set tempo
stop
Author
Difficulty
About this tab version
This version offers much more details than the other tabs. Was this info helpful? Yes No
WHERE THE STREETS HAVE NO NAME

As recorded by U2
(From the 1987 Album THE JOSHUA TREE)

Words by Bono
Music by U2

Transcribed by Slowhand 



          D5                  Dmaj7                G#11                   G
     x 7 7 7 10 10        x 7 7 7 10 9          x 0 9 7 8 9          x 0 9 7 8 7

          Bm                   A5               D5(type 2)                D
      9 x 9 7 7 7         7 9 7 9 10 x          0 1 1 1 4 4        x x 0 11 10 10

          G5                  (Bm9)               Dsus4/C           Csus4(type 2)
    x x x 12 15 15         x x x x 7 9         x x x 7 8 10         x x x 7 10 10



Gtr I (E A D G B E) - 'The Edge - Electric Guitar'
Gtr II (E A D G B E) - 'The Edge - Electric Guitar'
Gtr III (E A D G B E) - 'Brian Eno - Keyboards'



   Intro
    Q=92
    D5              Dmaj7      G#11       G
   3/4
    Gtr III (Keyboards arr. for Gtr.)
    H.        +H    Q    +H    Q    +H    Q    +H.
    |          |    |     |    |     |    |     |
    /          /    /     /    /     /    /     /

    Gtr I (Clean El. Gtr.)
    W          W          W          W          W      3x
||----------|----------|----------|----------|---------||
||o---------|----------|----------|----------|--------o||
||----------|----------|----------|----------|---------||
||----------|----------|----------|----------|---------||
||o---------|----------|----------|----------|--------o||
||----------|----------|----------|----------|---------||


  Q=132
  D5
   H.                  +H.                   H.
   |                    |                    |
   /                    /                    /

  Gtr I
   E   E  E  E  E  E    E   E  E  E  E  E    E   E  E  E  E  E
|--------------10----|--------------10----|--------------10----|
|-----------10-------|-----------10-------|-----------10-------|
|-12--11-12-------11-|-12--11-12-------11-|-12--11-12-------11-|
|--------------------|--------------------|--------------------|
|--------------------|--------------------|--------------------|
|--------------------|--------------------|--------------------|


              Dmaj7               G#11
  +H           Q      +H           Q
   |           |       |           |
   /           /       /           /

   E  E  E  E  E  E    E  E  E  E  E  E
|-------------10----|-------------10----|
|----------10-------|----------10-------|
|-12-11-12-------11-|-12-11-12-------11-|
|-------------------|-------------------|
|-------------------|-------------------|
|-------------------|-------------------|


              G
  +H           Q      +H.
   |           |       |
   /           /       /

   E  E  E  E  E  E    E   E  E  E  E  E
|-------------10----|--------------10----|
|----------10-------|-----------10-------|
|-12-11-12-------11-|-12--11-12-------11-|
|-------------------|--------------------|
|-------------------|--------------------|
|-------------------|--------------------|


                                                        Bm
  +H.                  +H.                  +H           Q
   |                    |                    |           |
   /                    /                    /           /

   E   E  E  E  E  E    E   E  E  E  E  E    E  E  E  E  E  E
|--------------10----|--------------10----|-------------10----|
|-----------10-------|-----------10-------|----------10-------|
|-12--11-12-------11-|-12--11-12-------11-|-12-11-12-------11-|
|--------------------|--------------------|-------------------|
|--------------------|--------------------|-------------------|
|--------------------|--------------------|-------------------|


  +H.                  +H.                  +H.
   |                    |                    |
   /                    /                    /

   E   E  E  E  E  E    E   E  E  E  E  E    E   E  E  E  E  E
|--------------10----|--------------10----|--------------10----|
|-----------10-------|-----------10-------|-----------10-------|
|-12--11-12-------11-|-12--11-12-------11-|-12--11-12-------11-|
|--------------------|--------------------|--------------------|
|--------------------|--------------------|--------------------|
|--------------------|--------------------|--------------------|


                                   A5
   H.                  +H           Q
   |                    |           |
   /                    /           /

   E   E  E  E  E  E    E  E  E  E  E  E
|--------------10----|-------------10----|
|-----------10-------|----------10-------|
|-12--11-12-------11-|-12-11-12-------11-|
|--------------------|-------------------|
|--------------------|-------------------|
|--------------------|-------------------|


  +H.                      +H.
   |                        |
   /                        /

   E   E  E  E  S  S  E    +S   S  E  S  S  S  S  S  S  S  S
|--------------10-------|---------10----10-------10-------10-|
|-----------10----10----|------------------10-------10-------|
|-12--11-12----------12-|-(12)-12----12-------12-------12----|
|-----------------------|------------------------------------|
|-----------------------|------------------------------------|
|-----------------------|------------------------------------|


  D5
   H.                                  +H.
   |                                    |
   /                                    /

   S   S  S  S  S  S  E  S  S  S  S    +S   S  S  S  S  S  S  S  S  S  S  S
|--------10-------10-10-10-10-10-10-|-(10)-10-10-10-10-10-10-10-10-10-10-10-|
|-10--------10----10-10-10-10-10-10-|-(10)-10-10-10-10-10-10-10-10-10-10-10-|
|-----12-------12-12-12-12-12-12-12-|-(12)-12-12-12-12-12-12-12-12-12-12-12-|
|-----------------------------------|---------------------------------------|
|-----------------------------------|---------------------------------------|
|-----------------------------------|---------------------------------------|


 4/4
   W
   |
   /

   S  S  S  S  S  S  S  S  S  S  S  S  S  S  S  S
|-10-10-10-10-10-10-10-10-10-10-10-10-10-10-10-10-|
|-10-10-10-10-10-10-10-10-10-10-10-10-10-10-10-10-|
|-12-12-11-11-12p11-11-12-12-12p11-11-12p11-11-12-|
|-12-12-12-12-12-12-12-12-12-12-12-12-12-12-12-12-|
|-------------------------------------------------|
|-------------------------------------------------|


  +W
   |
   /

   S  S  S  S  S  S  S  S  S  S  S  S  S  S  S  S
|-10-10-10-10-10-10-10-10-10-10-10-10-10-10-10-10-|
|-10-10-10-10-10-10-10-10-10-10-10-10-10-10-10-10-|
|-12-12p11-11-12-11-11-12-12-12p11-11-12-11-11-12-|
|-12-12-12-12-12-12-12-12-12-12-12-12-12-12-12-12-|
|-------------------------------------------------|
|-------------------------------------------------|


   W
   |
   /

   S  S  S  S  S  S  S  S  S  S  S  S  S  S  S  S
|-10-10-10-10-10-10-10-10-10-10-10-10-10-10-10-10-|
|-10-10-10-10-10-10-10-10-10-10-10-10-10-10-10-10-|
|-12-11-11-11-12p11-11-12----12-11-11-12p11-11-11-|
|-12-12-12-12-12-12-12-12----12-12-12-12-12-12-12-|
|-------------------------------------------------|
|-------------------------------------------------|


  +W
   |
   /

   S  S  S  S  S  S  S  S  S  S  S  S  S  S  S  S
|-10-10-10-10-10-10-10-10-10-10-10-10-10-10-10-10-|
|-10-10-10-10-10-10-10-10-10-10-10-10-10-10-10-10-|
|-12p11-11-11-12p11-11-12----12-11-11-12p11-11-11-|
|-12-12-12-12-12-12-12-12----12-12-12-12-12-12-12-|
|-------------------------------------------------|
|-------------------------------------------------|


    D5
     W
     |
     /

     S  S  S  S  S  S  S  S  S  S  S  S  S  S  S  S
||--10-10-10-10-10-10-10-10-10-10-10-10-10-10-10-10-|
||o-10-10-10-10-10-10-10-10-10-10-10-10-10-10-10-10-|
||--12p11-11-11-12p11-11-12----12-11-11-12p11-11-11-|
||--12-12-12-12-12-12-12-12----12-12-12-12-12-12-12-|
||o-------------------------------------------------|
||--------------------------------------------------|


  +W
   |
   /

   S  S  S  S  S  S  S  S  S  S  S  S  S  S  S  S
|-10-10-10-10-10-10-10-10-10-10-10-10-10-10-10-10-|
|-10-10-10-10-10-10-10-10-10-10-10-10-10-10-10-10-|
|-12p11-11-11-12p11-11-12----12-11-11-12p11-11-11-|
|-12-12-12-12-12-12-12-12----12-12-12-12-12-12-12-|
|-------------------------------------------------|
|-------------------------------------------------|


  G
   W
   |
   /

   S  S  S  S  S  S  S  S  S  S  S  S  S  S  S  S
|-10-10-10-10-10-10-10-10-10-10-10-10-10-10-10-10-|
|-10-10-10-10-10-10-10-10-10-10-10-10-10-10-10-10-|
|-12p11-11-11-12p11-11-12----12-11-11-12p11-11-11-|
|-12-12-12-12-12-12-12-12----12-12-12-12-12-12-12-|
|-------------------------------------------------|
|-------------------------------------------------|


  +W
   |
   /

   S  S  S  S  S  S  S  S  S  S  S  S  S  S  S  S
|-10-10-10-10-10-10-10-10-10-10-10-10-10-10-10-10--||
|-10-10-10-10-10-10-10-10-10-10-10-10-10-10-10-10-o||
|-12p11-11-11-12p11-11-12----12-11-11-12p11-11-11--||
|-12-12-12-12-12-12-12-12----12-12-12-12-12-12-12--||
|-------------------------------------------------o||
|--------------------------------------------------||


  Bm
   W
   |
   /

   S  S  S  S  S  S  S  S  S  S  S  S  S  S  S  S
|-10-10-10-10-10-10-10-10-10-10-10-10-10-10-10-10-|
|-10-10-10-10-10-10-10-10-10-10-10-10-10-10-10-10-|
|-12p11-11-11-12p11-11-12----12-11-11-12p11-11-11-|
|-12-12-12-12-12-12-12-12----12-12-12-12-12-12-12-|
|-------------------------------------------------|
|-------------------------------------------------|


  +W
   |
   /

   S  S  S  S  S  S  S  S  S  S  S  S  S  S  S  S
|-10-10-10-10-10-10-10-10-10-10-10-10-10-10-10-10-|
|-10-10-10-10-10-10-10-10-10-10-10-10-10-10-10-10-|
|-12p11-11-11-12p11-11-12----12-11-11-12p11-11-11-|
|-12-12-12-12-12-12-12-12----12-12-12-12-12-12-12-|
|-------------------------------------------------|
|-------------------------------------------------|


  A5
   W
   |
   /

   S  S  S  S  S  S  S  S  S  S  S  S  S  S  S  S
|-10-10-10-10-10-10-10-10-10-10-10-10-10-10-10-10-|
|-10-10-10-10-10-10-10-10-10-10-10-10-10-10-10-10-|
|-12p11-11-11-12p11-11-12----12-11-11-12p11-11-11-|
|-12-12-12-12-12-12-12-12----12-12-12-12-12-12-12-|
|-------------------------------------------------|
|-------------------------------------------------|


  +W
   |
   /

   S  S  S  S  S  S  S  S  S  S  S  S  S  S  S  S
|-10-10-10-10-10-10-10-10-10-10-10-10-10-10-10-10-|
|-10-10-10-10-10-10-10-10-10-10-10-10-10-10-10-10-|
|-12p11-11-11-12p11-11-12----12-11-11-12p11-11-11-|
|-12-12-12-12-12-12-12-12----12-12-12-12-12-12-12-|
|-------------------------------------------------|
|-------------------------------------------------|


  Dsus4/C
   W
   |
   /

   E  S  S  +E   S  S  +S   E  S  Q
|-10-10-10-(10)-10-10-(10)-10-10-10--|
|-10-10-10-(10)-10-10-(10)-10-10-10--|
|-12-12-12-(12)-12-12-(12)-12-12-12--|
|-12-12-12-(12)-12-12-(12)-12-12-12--|
|------------------------------------|
|------------------------------------|


  +W
   |
   /

   E  S  S  +S   E  S  S  S  S  S  S  S  S  S
|-10-10-10-(10)-10-10-10-10-10-10-10-10-10-10-|
|-10-10-10-(10)-10-10-10-10-10-10-10-10-10-10-|
|-12-12-12-(12)-12-12-12-12-12-12-12-12-12-12-|
|-12-12-12-(12)-12-12-12-12-12-12-12-12-12-12-|
|---------------------------------------------|
|---------------------------------------------|


  +W
   |
   /

   S  S  S  S  S  S  S  S  S  S  S  S  S  S  S  S
|-12-12-12-12-12-12-12-12-12-12-12-12-12-12-12-12-|
|-10-10-10-10-10-10-10-10-10-10-10-10-10-10-10-10-|
|-12-12-12-12-12-12-12-12-12-12-12-12-12-12-12-12-|
|-12-12-12-12-12-12-12-12-12-12-12-12-12-12-12-12-|
|-------------------------------------------------|
|-------------------------------------------------|


   W
   S  S  S  S  S  S  S  S  S  S  S  S  S  S  S  S
|-12-12-12-12-12-12-12-12-12-12-12-12-12-12-12-12-||
|-10-10-10-10-10-10-10-10-10-10-10-10-10-10-10-10-||
|-12-12-12-12-12-12-12-12-12-12-12-12-12-12-12-12-||
|-12-12-12-12-12-12-12-12-12-12-12-12-12-12-12-12-||
|-------------------------------------------------||
|-------------------------------------------------||


 1st Verse
  D
  PM------|   PM----------------------------------------------|
  E S S S S E S S S S S S S S   S S S S S S S S S S S S S S S S
|---x-x-x-x---x-x-x-x-x-x-x-x-|-x-x-x-x-x-x-x-x-x-x-x-x-x-x-x-x-|
|---x-x-x-x---x-x-x-x-x-x-x-x-|-x-x-x-x-x-x-x-x-x-x-x-x-x-x-x-x-|
|---x-x-x-x---x-x-x-x-x-x-x-x-|-x-x-x-x-x-x-x-x-x-x-x-x-x-x-x-x-|
|-----------------------------|---------------------------------|
|-----------------------------|---------------------------------|
|-----------------------------|---------------------------------|


         PM|   PM-------------------------------------------
  Q.   E S S S S S S S S   S S S S S S S S S S S S S S S S
|------x-x-x---x-x-x-x-x-|-x-x-x-x-x-x-x-x-x-x-x-x-x-x-x-x-|
|------x-x-x---x-x-x-x-x-|-x-x-x-x-x-x-x-x-x-x-x-x-x-x-x-x-|
|------x-x-x---x-x-x-x-x-|-x-x-x-x-x-x-x-x-x-x-x-x-x-x-x-x-|
|-0----------------------|---------------------------------|
|------------------------|---------------------------------|
|------------------------|---------------------------------|


 -------------------------------|
  S S S S S S S S S S S S S S S S
|-x-x-x-x-x-x-x-x-x-x-x-x-x-x-x-x-|
|-x-x-x-x-x-x-x-x-x-x-x-x-x-x-x-x-|
|-x-x-x-x-x-x-x-x-x-x-x-x-x-x-x-x-|
|---------------------------------|
|---------------------------------|
|---------------------------------|


                                    G       G5
  PM--------------------------------------|                         PM----|
  S S S S S S S S S S S S S S S S   S S S S  S  S  S  S  S  S  S  S S S S S
|-x-x-x-x-x-x-x-x-x-x-x-x-x-x-x-x-|-x-x-x-x-15-15-15-15-15-15-15-15-x-x-x-x-|
|-x-x-x-x-x-x-x-x-x-x-x-x-x-x-x-x-|-x-x-x-x-15-15-15-15-15-15-15-15-x-x-x-x-|
|-x-x-x-x-x-x-x-x-x-x-x-x-x-x-x-x-|-x-x-x-x-12-12-12-12-12-12-12-12-x-x-x-x-|
|---------------------------------|-x-x-x-x---------------------------------|
|---------------------------------|-x-x-x-x---------------------------------|
|---------------------------------|-----------------------------------------|


                                        Bm                          (Bm9)
  PM--------|       PM|       PM--------------------------------------|
  S S S S S S  S  S S S  S  S S S S S   S S S S S S S S S S S S S S S S
|-x-x-x-x-x-x-15-15-x-x-15-15-x-x-x-x-|-x-x-x-x-x-x-x---x-x---x-x-x-9-9-|
|-x-x-x-x-x-x-15-15-x-x-15-15-x-x-x-x-|-x-x-x-x-x-x-x---x-x---x-x-x-7-7-|
|-x-x-x-x-x-x-12-12-x-x-12-12-x-x-x-x-|-x-x-x-x-x-x-x---x-x---x-x-x-----|
|-------------------------------------|-x-x-x-x-x-x-x---x-x---x-x-x-----|
|-------------------------------------|---------------------------------|
|-------------------------------------|-x-x-x-x-x-x-x---x-x---x-x-x-----|


                                  A5
            PM--------------------------|
  S S S S E S S S S S S S S S S   S S S S S S S S S E. +Q
|-9-9---9-9-x-x-x-x-x-x-x-x-x-x-|---------------------------|
|-7-7---7-7-x-x-x-x-x-x-x-x-x-x-|-x-x-x-x-------------------|
|-------------------------------|-x-x-x-x-------------------|
|-------------------------------|-x-x-x-x-0-0-0-0-0-0--(0)--|
|-------------------------------|-x-x-x-x-------------------|
|-------------------------------|-x-x-x-x-------------------|


                                    Dsus4/C
  PM----------------------------|
                                     |--3--|  |--3--|
  S S S S S S S S S S S S S S S S    Q  Q  Q  Q  Q  Q
|---------------------------------|-10-10-10-10-10-10-|
|---x-x-x-x-x-x-x-x-x-x-x-x-x-x-x-|--8--8--8--8--8--8-|
|---x-x-x-x-x-x-x-x-x-x-x-x-x-x-x-|--7--7--7--7--7--7-|
|---x-x-x-x-x-x-x-x-x-x-x-x-x-x-x-|-------------------|
|---x-x-x-x-x-x-x-x-x-x-x-x-x-x-x-|-------------------|
|---x-x-x-x-x-x-x-x-x-x-x-x-x-x-x-|-------------------|


   S  S  S  S  S  S  S  S  S  S  S  S  S  S  S  S
|-10-10-10-10-10-10-10-10-10-10-10-10-10-10-10-10-|
|--8--8--8--8--8--8--8--8--8--8--8--8--8--8--8--8-|
|--7--7--7--7--7--7--7--7--7--7--7--7--7--7--7--7-|
|-------------------------------------------------|
|-------------------------------------------------|
|-------------------------------------------------|


   S  S  S  S  S  S  S  S  S  S  S  S  S  S  S  S
|-10-10-10-10-10-10-10-10-10-10-10-10-10-10-10-10-|
|--8--8--8--8--8--8--8--8--8--8--8--8--8--8--8--8-|
|--7--7--7--7--7--7--7--7--7--7--7--7--7--7--7--7-|
|-------------------------------------------------|
|-------------------------------------------------|
|-------------------------------------------------|


                                                         PM------------|
   S  S  S  S  S  S  S  S  S  S  S  S  S  S  S  S   H    S S S S S S S S
|-10-10-10-10-10-10-10-10-10-10-10-10-10-10-10-10-|------x-x-x-x-x-x-x-x--|
|--8--8--8--8--8--8--8--8--8--8--8--8--8--8--8--8-|------x-x-x-x-x-x-x-x--|
|--7--7--7--7--7--7--7--7--7--7--7--7--7--7--7--7-|------x-x-x-x-x-x-x-x--|
|-------------------------------------------------|-0---------------------|
|-------------------------------------------------|-----------------------|
|-------------------------------------------------|-----------------------|


  PM--------------------|        PM-----------------------|
  S S S S S S S S S S S S E E   +Q.     S S S S S S S S S S
|---x-x-x-x-x-x-x-x-x-x-x-----|---------x-x-x-x-x-x-x-x-x-x-|
|---x-x-x-x-x-x-x-x-x-x-x-----|---------x-x-x-x-x-x-x-x-x-x-|
|---x-x-x-x-x-x-x-x-x-x-x-----|---------x-x-x-x-x-x-x-x-x-x-|
|-------------------------0-0-|-(0)-------------------------|
|-----------------------------|-----------------------------|
|-----------------------------|-----------------------------|
|
| Gtr II (Clean El. Gtr.)
| W                              E  E Q     Q       Q
|-----------------------------|-------------0---------------|
|-----------------------------|--3------------------3-------|
|-----------------------------|-------2---------------------|
|-----------------------------|-----0-----------------------|
|-----------------------------|---------------------0-------|
|-----------------------------|-----------------------------|


  PM---------------------------------------------------------------------|
  S S S S S S S S  S  S  S S  S  S S S   S S S S S S S S  S  S S S S S S S
|-x-x-x-x-x-x-x-x--x--x--x-x--x--x-x-x-|-x-x-x-x-x-x-x-x--x--x-x-x-x-x-x-x-|
|-x-x-x-x-x-x-x-x--x--x--x-x--x--x-x-x-|-x-x-x-x-x-x-x-x--x--x-x-x-x-x-x-x-|
|-x-x-x-x-x-x-x-x--x--x--x-x--x--x-x-x-|-x-x-x-x-x-x-x-x--x--x-x-x-x-x-x-x-|
|--------------------------------------|-----------------------------------|
|--------------------------------------|-----------------------------------|
|--------------------------------------|-----------------------------------|
|
| H               +S  E.     +Q          Q       E   E   +E    E   Q
|-0---------------(0)------------------|-------------0---(0)---------------|
|-3---------------(3)-3------(3)-------|-3---------------------3-----------|
|-2---------------(2)------------------|---------2-----------------2-------|
|-0---------------(0)------------------|-0---------------------------------|
|-0---------------(0)------------------|-----------------------------------|
|--------------------------------------|-----------------------------------|


                                         Gmaj7/F#
  PM-------------------------------------------------------------------|
  S  S S S S S S S  S  S S S  S  S S S   S S S S S S S S S S S S S S S S
|-x--x-x-x-x-x-x-x--x--x-x-x--x--x-x-x-|---------------------------------|
|-x--x-x-x-x-x-x-x--x--x-x-x--x--x-x-x-|-x-x-x-x-x-x-x-x-x-x-x-x-x-x-x-x-|
|-x--x-x-x-x-x-x-x--x--x-x-x--x--x-x-x-|-x-x-x-x-x-x-x-x-x-x-x-x-x-x-x-x-|
|--------------------------------------|-x-x-x-x-x-x-x-x-x-x-x-x-x-x-x-x-|
|--------------------------------------|---------------------------------|
|--------------------------------------|---------------------------------|
|
| Q.           E   +E    E   +Q          E   E   E   E   E   E   Q
|-0------------------------------------|---------------------------------|
|-3----------------------3---(3)-------|---------3-----------3-----------|
|-2------------2---(2)-----------------|-----0-----------0---------------|
|-0------------------------------------|-4-----------4-----------4-------|
|--------------------------------------|---------------------------------|
|--------------------------------------|---------------------------------|


                                        Bm11
   PM-----------------------------------------------------------------|
   S  S S S S S S S S S S S  S  S S S   S S S S S S S S S S S S S S S S
|-------------------------------------|---------------------------------|
|--x--x-x-x-x-x-x-x-x-x-x-x--x--x-x-x-|-x-x-x-x-x-x-x-x-x-x-x-x-x-x-x-x-|
|--x--x-x-x-x-x-x-x-x-x-x-x--x--x-x-x-|-x-x-x-x-x-x-x-x-x-x-x-x-x-x-x-x-|
|--x--x-x-x-x-x-x-x-x-x-x-x--x--x-x-x-|-x-x-x-x-x-x-x-x-x-x-x-x-x-x-x-x-|
|-------------------------------------|---------------------------------|
|-------------------------------------|---------------------------------|
|
| +E    E   E   E   E   E   +E    E     Q       S S S S S S S S S S S S
|---------------------------------0---|-0-------0-0-0-0-0-0-0-0-0-0-0-0-|
|-----------3-----------3---(3)-------|-3-------5-5-5-5-5-5-5-5-5-5-5-5-|
|-------0-----------0-----------------|-0-------4-4-4-4-4-4-4-4-4-4-4-4-|
|-(4)-----------4---------------------|-4-------------------------------|
|-------------------------------------|---------------------------------|
|-------------------------------------|---------------------------------|


  PM---------------------------------------------------------------------|
  S S S S  S  S  S S S S S S S S S S   S S S S S S  S S  S  S S S S  S S S
|------------------------------------|-------------------------------------|
|-x-x-x-x--x--x--x-x-x-x-x-x-x-x-x-x-|-x-x-x-x-x-x--x-x--x--x-x-x-x--x-x-x-|
|-x-x-x-x--x--x--x-x-x-x-x-x-x-x-x-x-|-x-x-x-x-x-x--x-x--x--x-x-x-x--x-x-x-|
|-x-x-x-x--x--x--x-x-x-x-x-x-x-x-x-x-|-x-x-x-x-x-x--x-x--x--x-x-x-x--x-x-x-|
|------------------------------------|-------------------------------------|
|------------------------------------|-------------------------------------|
|
| S S S S +S  E.     S S S S S S S S   S S S S S E.     +S  S S S E.     S
|-0-0-0-0-(0)-0------0-0-0-0-0-0-0-0-|-0-0-0-0-0-0------(0)-0-0-0-0------0-|
|-5-5-5-5-(5)-5------5-5-5-5-5-5-5-5-|-5-5-5-5-5-5------(5)-5-5-5-5------5-|
|-4-4-4-4-(4)-4------4-4-4-4-4-4-4-4-|-4-4-4-4-4-4------(4)-4-4-4-4------4-|
|------------------------------------|-------------------------------------|
|------------------------------------|-------------------------------------|
|------------------------------------|-------------------------------------|


  PM---------------------------------------------
  S S  S  S  S  S  S  S  S  S  S  S  S  S  S  S
|-----12-12-12-12-12-12-12-12-12-12-12-12-12-12-|
|-x-x-------------------------------------------|
|-x-x-------------------------------------------|
|-x-x-------------------------------------------|
|-----------------------------------------------|
|-----------------------------------------------|
|
| S S  S  S  S  S  S  S  S  S  S  S  S  S  S  S
|-0-0--0--0--0--0--0--0--0--0--0--0--0--0--0--0-|
|-5-5--5--5--5--5--5--5--5--5--5--5--5--5--5--5-|
|-4-4--4--4--4--4--4--4--4--4--4--4--4--4--4--4-|
|-----------------------------------------------|
|-----------------------------------------------|
|-----------------------------------------------|


  Csus4(type 2)
 ------------------------------------------------------|
   S  S  S  S  S  S       S  S   S   S  S   S  S  S  S  S
|-10-10-10-10-10-10------10-10--10--10-10--10-10-10-10-10-|
|-10-10-10-10-10-10------10-10--10--10-10--10-10-10-10-10-|
|--7--7--7--7--7--7-------7--7---7---7--7---7--7--7--7--7-|
|---------------------------------------------------------|
|---------------------------------------------------------|
|---------------------------------------------------------|
|
|  |--------3---------|
|  H                 +Q         +E      Q.
|-10----------------(10)-------(10)----10-----------------|
|--7-----------------(7)--------(7)-----8-----------------|
|---------------------------------------------------------|
|---------------------------------------------------------|
|---------------------------------------------------------|
|---------------------------------------------------------|


   PM----------------------------------------------
   S  S  S  S  S  S  S  S  S  S  S  S  S  S  S  S
|-10-10-10-10-10-10-10-10-10-10-10-10-10-10-10-10-|
|-10-10-10-10-10-10-10-10-10-10-10-10-10-10-10-10-|
|--7--7--7--7--7--7--7--7--7--7--7--7--7--7--7--7-|
|-------------------------------------------------|
|-------------------------------------------------|
|-------------------------------------------------|
|
|  Q           S  S  S  S  S  S  S  S  S  S  S  S
|-10----------10-10-10-10-10-10-10-10-10-10-10-10-|
|--8-----------8--8--8--8--8--8--8--8--8--8--8--8-|
|--0-----------0--0--0--0--0--0--0--0--0--0--0--0-|
|-------------------------------------------------|
|-------------------------------------------------|
|-------------------------------------------------|


 ----------------------------------------------|
   S  S  S  S  S  S  S  S  S  S  S  S  S  S  S  S
|-10-10-10-10-10-10-10-10-10-10-10-10-10-10-10-10-|
|-10-10-10-10-10-10-10-10-10-10-10-10-10-10-10-10-|
|--7--7--7--7--7--7--7--7--7--7--7--7--7--7--7--7-|
|-------------------------------------------------|
|-------------------------------------------------|
|-------------------------------------------------|
|
|  S  S  S  S  S  S  S  S  S  S  S  S  S  S  S  S
|-10-10-10-10-10-10-10-10-10-10-10-10-10-10-10-10-|
|--7--7--7--7--7--7--8--8--8--8--8--8--8--8--8--8-|
|--0--0--0--0--0--0--0--0--0--0--0--0--0--0--0--0-|
|-------------------------------------------------|
|-------------------------------------------------|
|-------------------------------------------------|


                                                    Chorus
                                                  $
                                                     D5    Dsus4  D
                                                  Gtrs I, II
   PM------------------------------------------|
   S  S  S  S  S  S  S  S  S  S  S  S  S  S  S  S     Q.   E +Q   E. S
|-10-10-10-10-10-10-10-10-10-10-10-10-10-10-10-10-||-------------------|
|-10-10-10-10-10-10-10-10-10-10-10-10-10-10-10-10-||-10----8-(8)--7--7-|
|--7--7--7--7--7--7--7--7--7--7--7--7--7--7--7--7-||--7----7-(7)--7--7-|
|-------------------------------------------------||-------------------|
|-------------------------------------------------||-------------------|
|-------------------------------------------------||-------------------|
|
|  S  S  S  S  S  S  S  S  S  S  S  S  S  S  S  S     W
|-10-10-10-10-10-10-10-10-10-10-10-10-10-10-10-10-||-------------------|
|--8--8--8--8--8--8--8--8--8--8--8--8--8--8--8--8-||-------------------|
|--0--0--0--0--0--0--0--0--0--0--0--0--0--0--0--0-||-------------------|
|-------------------------------------------------||-------------------|
|-------------------------------------------------||-------------------|
|-------------------------------------------------||-------------------|


                                D5                Dsus4       D
  Q  S  S S S S S S S S S S S    S  S  S  S  S  S S S S S S S E. S
|-----------------------------|-------------------------------------|
|-7--7--7-7-7-7-7-7-7-7-7-7-7-|-10-10-10-10-10-10-8-8-8-8-8-8-7--7--|
|-7--7--7-7-7-7-7-7-7-7-7-7-7-|--7--7--7--7--7--7-7-7-7-7-7-7-7--7--|
|----0------------------------|-------------------------------------|
|-----------------------------|-------------------------------------|
|-----------------------------|-------------------------------------|
  Q  H.


                                 Gsus4             G5          Gmaj7
  E. S S S S S S S S S S S S S    S  S  S  S  S  S S S S S S S S S S S
|------------------------------|---------------------------------------|
|-7--7-7-7-7-7-7-7-7-7-7-7-7-7-|-10-10-10-10-10-10-8-8-8-8-8-8-7-7-7-7-|
|-7--7-7-7-7-7-7-7-7-7-7-7-7-7-|--7--7--7--7--7--7-7-7-7-7-7-7-7-7-7-7-|
|-0----------------------------|--0------------------------------------|
|------------------------------|---------------------------------------|
|------------------------------|---------------------------------------|
  W                               W


  Q  E E S S S S S S S S    S  S  S  S  S  S S S S S S S E. S
|------------------------|------------------------------------|
|-8--8-7-8-7-7-7-7-7-7-7-|-10-10-10-10-10-10-8-8-8-8-8-8-7--7-|
|-7--7-7-7-7-7-7-7-7-7-7-|--7--7--7--7--7--7-7-7-7-7-7-7-7--7-|
|-0----------------------|------------------------------------|
|------------------------|------------------------------------|
|------------------------|------------------------------------|


  G5                Gmaj7           Bm7
                                  Gtr I
  S S S S S S S S S S S S S S S S    S   S  S  S  S  S S S  S  S S S E. S
|---------------------------------|---------------------------------------|
|-8-8-8-8-8-8-7-7-8-7-7-7-7-7-7-7-|-10--10-10-10-10-10-8-8--8--8-8-8-7--7-|
|-7-7-7-7-7-7-7-7-7-7-7-7-7-7-7-7-|--7---7--7--7--7--7-7-7--7--7-7-7-7--7-|
|-0-------------------------------|----------------------------------0----|
|---------------------------------|---------------------------------------|
|---------------------------------|---------------------------------------|
| W                                  H                      Q        Q
|
|                                 Gtr II
| W                                  Q.                E   +Q        Q
|---------------------------------|--------------------0---(0)------------|
|---------------------------------|--3-------------------------------3----|
|---------------------------------|--4-------------------------------4----|
|---------------------------------|----------------------------------0----|
|---------------------------------|---------------------------------------|
|---------------------------------|---------------------------------------|


                                        Asus4
   S  S S S  S  S S S S S S S S S S S    E.  S  E S S +S  S E S S S S
|-------------------------------------|--------------------------------|
|--7--7-7-7--7--7-7-7-7-7-7-7-7-7-7-7-|-10--10-10-8-8-(8)-8-8-7-7-7-7--|
|--7--7-7-7--7--7-7-7-7-7-7-7-7-7-7-7-|--7---7--7-7-7-(7)-7-7-7-7-7-7--|
|-(0)---------------------------------|-----------------------0--------|
|-------------------------------------|--------------------------------|
|-------------------------------------|--------------------------------|
| +W                                     H             Q      Q
|
| +E    E   +Q        H                  H.                   Q
|-------0---(0)-----------------------|--------------------------------|
|-(3)-----------------3---------------|--2-----------------------------|
|-(4)-----------------4---------------|--2-----------------------------|
|-(0)-----------------0---------------|--0--------------------0--------|
|-------------------------------------|--------------------------------|
|-------------------------------------|--------------------------------|


                           To Coda
  A7sus4
  S S S S S S S S S S S S S S S S
|----------------------------------|
|-8-8-8-8-8-8-8-8-8-8-8-8-8-8-8-8--|
|-7-7-7-7-7-7-7-7-7-7-7-7-7-7-7-7--|
|-0--------------------------------|
|----------------------------------|
|----------------------------------|
|
| E   S S S S S S S S S S S S S S
|-----3-3-3-3-3-3-3-3-3-3-3-3-3-3--|
|-2---2-2-2-2-2-2-2-2-2-2-2-2-2-2--|
|-2-------0------------------------|
|-0--------------------------------|
|----------------------------------|
|----------------------------------|


  D
   S  S  S  S  S  S  S  S  S  S  S  S  S  S  S  S
|-10-10-10-10-10-10-10-10-10-10-10-10-10-10-10-10-|
|-10-10-10-10-10-10-10-10-10-10-10-10-10-10-10-10-|
|-12-12-11-11-12p11-11-12-12-12p11-11-12p11-11-12-|
|-12-12-12-12-12-12-12-12-12-12-12-12-12-12-12-12-|
|-------------------------------------------------|
|-------------------------------------------------|
|
|  S  S  S  S  S  S  S  S  S  S  S  S  S  S  S  S
|--x--x-10-10--x-10-10----10-10--x-10--x-10-10--x-|
|--x--x-10-10--x-10-10----10-10--x-10--x-10-10--x-|
|-------------------------------------------------|
|-------------------------------------------------|
|-------------------------------------------------|
|-------------------------------------------------|


  D5
   S  S  S  S  S  S  S  S  S  S  S  S  S  S  S  S
|-10-10-10-10-10-10-10-10-10-10-10-10-10-10-10-10-|
|-10-10-10-10-10-10-10-10-10-10-10-10-10-10-10-10-|
|-12-12-11-11-12p11-11-12-12-12p11-11-12p11-11-12-|
|-12-12-12-12-12-12-12-12-12-12-12-12-12-12-12-12-|
|-------------------------------------------------|
|-------------------------------------------------|
|
|  S  S  S  S  S  S  S  S  S  S  S  S  S  S  S  S
|--x-10--x-10-10-10--x-10--x-10-10--x--x-10-10-10-|
|--x-10--x-10-10-10--x-10--x-10-10--x--x-10-10-10-|
|-------------------------------------------------|
|-------------------------------------------------|
|-------------------------------------------------|
|-------------------------------------------------|


   S  S  S  S  S  S  S  S  S  S  S  S  S  S  S  S
|-10-10-10-10-10-10-10-10-10-10-10-10-10-10-10-10-|
|-10-10-10-10-10-10-10-10-10-10-10-10-10-10-10-10-|
|-12-12-11-11-12p11-11-12-12-12p11-11-12p11-11-12-|
|-12-12-12-12-12-12-12-12-12-12-12-12-12-12-12-12-|
|-------------------------------------------------|
|-------------------------------------------------|
|
|  S  S  S  S  S  S  S  S  S  S  S  S  S  S  S  S
|--x--x-10-10--x-10-10----10-10--x-10--x-10-10--x-|
|--x--x-10-10--x-10-10----10-10--x-10--x-10-10--x-|
|-------------------------------------------------|
|-------------------------------------------------|
|-------------------------------------------------|
|-------------------------------------------------|


   S  S  S  S  S  S  S  S  S  S  S  S  S  S  S  S
|-10-10-10-10-10-10-10-10-10-10-10-10-10-10-10-10-||
|-10-10-10-10-10-10-10-10-10-10-10-10-10-10-10-10-||
|-12-12-11-11-12p11-11-12-12-12p11-11-12p11-11-12-||
|-12-12-12-12-12-12-12-12-12-12-12-12-12-12-12-12-||
|-------------------------------------------------||
|-------------------------------------------------||
|
|  S  S  S  S  S  S  S  S  S  S  S  S  S  S  S  S
|-10-10-10-10-10-10-10-10-10-10-10-10-10-10-10-10-||
|-10-10-10-10-10-10-10-10-10-10-10-10-10-10-10-10-||
|-------------------------------------------------||
|-------------------------------------------------||
|-------------------------------------------------||
|-------------------------------------------------||


 2nd Verse
  D
   S  S  S  S  S  S  S  S  S  S  S  S  S  S  S  S
|-10-10-10-10-10-10-10-10-10-10-10-10-10-10-10-10-|
|-10-10-10-10-10-10-10-10-10-10-10-10-10-10-10-10-|
|-12p11-11-11-12p11-11-12----12-11-11-12p11-11-11-|
|-12-12-12-12-12-12-12-12----12-12-12-12-12-12-12-|
|-------------------------------------------------|
|-------------------------------------------------|
|
|  PM------------------------------------------|
|  S  S  S  S  S  S  S  S  S  S  S  S  S  S  S  S
|--x--x--x--x--x--x--x--x--x--x--x--x--x--x--x--x-|
|--x--x--x--x--x--x--x--x--x--x--x--x--x--x--x--x-|
|--x--x--x--x--x--x--x--x--x--x--x--x--x--x--x--x-|
|-------------------------------------------------|
|-------------------------------------------------|
|-------------------------------------------------|


     S  S  S  S  S  S  S  S  S  S  S  S  S  S  S  S
||--10-10-10-10-10-10-10-10-10-10-10-10-10-10-10-10-|
||o-10-10-10-10-10-10-10-10-10-10-10-10-10-10-10-10-|
||--12p11-11-11-12p11-11-12----12-11-11-12p11-11-11-|
||--12-12-12-12-12-12-12-12----12-12-12-12-12-12-12-|
||o-------------------------------------------------|
||--------------------------------------------------|
|
|    PM----------------------------------------------
|    S  S  S  S  S  S  S  S  S  S  S  S  S  S  S  S
||---x--x--x--x--x--x--x--x--x--x--x--x--x--x--x--x-|
||o--x--x--x--x--x--x--x--x--x--x--x--x--x--x--x--x-|
||---x--x--x--x--x--x--x--x--x--x--x--x--x--x--x--x-|
||--------------------------------------------------|
||o-------------------------------------------------|
||--------------------------------------------------|


   S  S  S  S  S  S  S  S  S  S  S  S  S  S  S  S
|-10-10-10-10-10-10-10-10-10-10-10-10-10-10-10-10--||
|-10-10-10-10-10-10-10-10-10-10-10-10-10-10-10-10-o||
|-12p11-11-11-12p11-11-12----12-11-11-12p11-11-11--||
|-12-12-12-12-12-12-12-12----12-12-12-12-12-12-12--||
|-------------------------------------------------o||
|--------------------------------------------------||
|
|----------------------------------------------|
|  S  S  S  S  S  S  S  S  S  S  S  S  S  S  S  S
|--x--x--x--x--x--x--x--x--x--x--x--x--x--x--x--x--||
|--x--x--x--x--x--x--x--x--x--x--x--x--x--x--x--x-o||
|--x--x--x--x--x--x--x--x--x--x--x--x--x--x--x--x--||
|--------------------------------------------------||
|-------------------------------------------------o||
|--------------------------------------------------||


   S  S  S  S  S  S  S  S  S  S  S  S  S  S  S  S
|-10-10-10-10-10-10-10-10-10-10-10-10-10-10-10-10-|
|-10-10-10-10-10-10-10-10-10-10-10-10-10-10-10-10-|
|-12p11-11-11-12p11-11-12----12-11-11-12p11-11-11-|
|-12-12-12-12-12-12-12-12----12-12-12-12-12-12-12-|
|-------------------------------------------------|
|-------------------------------------------------|
|
|  PM----------------------------------------------
|  S  S  S  S  S  S  S  S  S  S  S  S  S  S  S  S
|--x--x--x--x--x--x--x--x--x--x--x--x--x--x--x--x-|
|--x--x--x--x--x--x--x--x--x--x--x--x--x--x--x--x-|
|--x--x--x--x--x--x--x--x--x--x--x--x--x--x--x--x-|
|-------------------------------------------------|
|-------------------------------------------------|
|-------------------------------------------------|


  G
  PM----------------------------|
  S S S S S S S S S S S S S S S S
|-7-7-7-7-7-7-7-7-7-7-7-7-7-7-7-7-|
|-8-8-8-8-8-8-8-8-8-8-8-8-8-8-8-8-|
|-7-7-7-7-7-7-7-7-7-7-7-7-7-7-7-7-|
|-9-9-9-9-9-9-9-9-9-9-9-9-9-9-9-9-|
|---------------------------------|
|---------------------------------|
|
|-------------------------------|
| S S S S S S S S S S S S S S S S
|-x-x-x-x-x-x-x-x-x-x-x-x-x-x-x-x-|
|-x-x-x-x-x-x-x-x-x-x-x-x-x-x-x-x-|
|-x-x-x-x-x-x-x-x-x-x-x-x-x-x-x-x-|
|-x-x-x-x-x-x-x-x-x-x-x-x-x-x-x-x-|
|-x-x-x-x-x-x-x-x-x-x-x-x-x-x-x-x-|
|---------------------------------|


                                    Bm
  PM--------------------------------------------------------------|
  S S S S S S S S S S S S S S S S   S S S S S S S S S S S S S S S S
|-7-7-7-7-7-7-7-7-7-7-7-7-7-7-7-7-|-7-7-7-7-7-7-7-7-7-7-7-7-7-7-7-7-|
|-8-8-8-8-8-8-8-8-8-8-8-8-8-8-8-8-|-7-7-7-7-7-7-7-7-7-7-7-7-7-7-7-7-|
|-7-7-7-7-7-7-7-7-7-7-7-7-7-7-7-7-|-7-7-7-7-7-7-7-7-7-7-7-7-7-7-7-7-|
|-9-9-9-9-9-9-9-9-9-9-9-9-9-9-9-9-|-9-9-9-9-9-9-9-9-9-9-9-9-9-9-9-9-|
|---------------------------------|---------------------------------|
|---------------------------------|-9-9-9-9-9-9-9-9-9-9-9-9-9-9-9-9-|
|
| PM--------------------------------------------------------------|
| S S S S S S S S S S S S S S S S   S S S S S S S S S S S S S S S S
|-x-x-x-x-x-x-x-x-x-x-x-x-x-x-x-x-|-x-x-x-x-x-x-x-x-x-x-x-x-x-x-x-x-|
|-x-x-x-x-x-x-x-x-x-x-x-x-x-x-x-x-|-x-x-x-x-x-x-x-x-x-x-x-x-x-x-x-x-|
|-x-x-x-x-x-x-x-x-x-x-x-x-x-x-x-x-|-x-x-x-x-x-x-x-x-x-x-x-x-x-x-x-x-|
|-x-x-x-x-x-x-x-x-x-x-x-x-x-x-x-x-|-x-x-x-x-x-x-x-x-x-x-x-x-x-x-x-x-|
|-x-x-x-x-x-x-x-x-x-x-x-x-x-x-x-x-|---------------------------------|
|---------------------------------|-x-x-x-x-x-x-x-x-x-x-x-x-x-x-x-x-|


  PM-------------------------------
  S S S S S S S S S S S S S S S S
|-7-7-7-7-7-7-7-7-7-7-7-7-7-7-7-7-|
|-7-7-7-7-7-7-7-7-7-7-7-7-7-7-7-7-|
|-7-7-7-7-7-7-7-7-7-7-7-7-7-7-7-7-|
|-9-9-9-9-9-9-9-9-9-9-9-9-9-9-9-9-|
|---------------------------------|
|-9-9-9-9-9-9-9-9-9-9-9-9-9-9-9-9-|
|
| PM-------------------------------
| S S S S S S S S S S S S S S S S
|-x-x-x-x-x-x-x-x-x-x-x-x-x-x-x-x-|
|-x-x-x-x-x-x-x-x-x-x-x-x-x-x-x-x-|
|-x-x-x-x-x-x-x-x-x-x-x-x-x-x-x-x-|
|-x-x-x-x-x-x-x-x-x-x-x-x-x-x-x-x-|
|---------------------------------|
|-x-x-x-x-x-x-x-x-x-x-x-x-x-x-x-x-|


  A5
 ----------------------------------------------|
   S  S  S  S  S  S  S  S  S  S  S  S  S  S  S  S
|-------------------------------------------------|
|-10-10-10-10-10-10-10-10-10-10-10-10-10-10-10-10-|
|--9--9--9--9--9--9--9--9--9--9--9--9--9--9--9--9-|
|--7--7--7--7--7--7--7--7--7--7--7--7--7--7--7--7-|
|--9--9--9--9--9--9--9--9--9--9--9--9--9--9--9--9-|
|--7--7--7--7--7--7--7--7--7--7--7--7--7--7--7--7-|
|
|----------------------------------------------|
|  S  S  S  S  S  S  S  S  S  S  S  S  S  S  S  S
|-------------------------------------------------|
|--x--x--x--x--x--x--x--x--x--x--x--x--x--x--x--x-|
|--x--x--x--x--x--x--x--x--x--x--x--x--x--x--x--x-|
|--x--x--x--x--x--x--x--x--x--x--x--x--x--x--x--x-|
|--x--x--x--x--x--x--x--x--x--x--x--x--x--x--x--x-|
|--x--x--x--x--x--x--x--x--x--x--x--x--x--x--x--x-|


   PM----------------------------------------------
   S  S  S  S  S  S  S  S  S  S  S  S  S  S  S  S
|-------------------------------------------------|
|-10-10-10-10-10-10-10-10-10-10-10-10-10-10-10-10-|
|--9--9--9--9--9--9--9--9--9--9--9--9--9--9--9--9-|
|--7--7--7--7--7--7--7--7--7--7--7--7--7--7--7--7-|
|--9--9--9--9--9--9--9--9--9--9--9--9--9--9--9--9-|
|--7--7--7--7--7--7--7--7--7--7--7--7--7--7--7--7-|
|
|  PM----------------------------------------------
|  S  S  S  S  S  S  S  S  S  S  S  S  S  S  S  S
|-------------------------------------------------|
|--x--x--x--x--x--x--x--x--x--x--x--x--x--x--x--x-|
|--x--x--x--x--x--x--x--x--x--x--x--x--x--x--x--x-|
|--x--x--x--x--x--x--x--x--x--x--x--x--x--x--x--x-|
|--x--x--x--x--x--x--x--x--x--x--x--x--x--x--x--x-|
|--x--x--x--x--x--x--x--x--x--x--x--x--x--x--x--x-|


 ----------------------------------------------|
   S  S  S  S  S  S  S  S  S  S  S  S  S  S  S  S
|-10-10-10-10-10-10-10-10-10-10-10-10-10-10-10-10-|
|-10-10-10-10-10-10-10-10-10-10-10-10-10-10-10-10-|
|--7--7--7--7--7--7--7--7--7--7--7--7--7--7--7--7-|
|-------------------------------------------------|
|-------------------------------------------------|
|-------------------------------------------------|
|
|----------------------------------------------|
|  S  S  S  S  S  S  S  S  S  S  S  S  S  S  S  S
|-10-10-10-10-10-10-10-10-10-10-10-10-10-10-10-10-|
|--8--8--8--8--8--8--8--8--8--8--8--8--8--8--8--8-|
|--7--7--7--7--7--7--7--7--7--7--7--7--7--7--7--7-|
|-------------------------------------------------|
|-------------------------------------------------|
|-------------------------------------------------|


   PM----------------------------------------------
   S  S  S  S  S  S  S  S  S  S  S  S  S  S  S  S
|-10-10-10-10-10-10-10-10-10-10-10-10-10-10-10-10-|
|-10-10-10-10-10-10-10-10-10-10-10-10-10-10-10-10-|
|--7--7--7--7--7--7--7--7--7--7--7--7--7--7--7--7-|
|-------------------------------------------------|
|-------------------------------------------------|
|-------------------------------------------------|
|
|  PM------------|
|  S  S  S  S  S  S  S  S  S  S  S  S  S  S  S  S
|-10-10-10-10-10-10-------------------------------|
|--8--8--8--8--8--8-------------------------------|
|--7--7--7--7--7--7-------------------------------|
|--------------------0--0--0--0--0--0--0--0--0--0-|
|-------------------------------------------------|
|-------------------------------------------------|


 ----------------------------------------------|
   S  S  S  S  S  S  S  S  S  S  S  S  S  S  S  S
|-10-10-10-10-10-10-10-10-10-10-10-10-10-10-10-10-|
|-10-10-10-10-10-10-10-10-10-10-10-10-10-10-10-10-|
|--7--7--7--7--7--7--7--7--7--7--7--7--7--7--7--7-|
|-------------------------------------------------|
|-------------------------------------------------|
|-------------------------------------------------|
|
|  PM---------------------------------------|
|  Q           S  S  S  S  S  S  S  S  E     E
|-10----------10-10-10-10-10-10-10-10-10----10----|
|--7-----------7--7--7--7--7--7--8--8--8-----8----|
|--7-----------7--7--7--7--7--7--7--7--7-----7----|
|-------------------------------------------------|
|-------------------------------------------------|
|-------------------------------------------------|


                                          D.S. al Coda &
   PM----------------------------------------------|
   S  S  S  S   S   S  S  S  S  S  S  S   S   S  S  S
|-10-10-10-10--10--10-10-10-10-10-10-10--10--10-10-10--||
|-10-10-10-10--10--10-10-10-10-10-10-10--10--10-10-10--||
|--7--7--7--7---7---7--7--7--7--7--7--7---7---7--7--7--||
|------------------------------------------------------||
|------------------------------------------------------||
|------------------------------------------------------||
|
|  PM----------------------------------------------------
|  S  E     S  +S   S  E     S  E     S  +S   S  E
|-10-10----10-(10)-10-10----10-10----10-(10)-10-10-----||
|--8--8-----8--(8)--8--8-----8--8-----8--(8)--8--8-----||
|--7--7-----7--(7)--7--7-----7--7-----7--(7)--7--7-----||
|------------------------------------------------------||
|------------------------------------------------------||
|------------------------------------------------------||


  D
   S  S  S  S  S  S  S  S  S  S  S  S  S  S  S  S
|-10-10-10-10-10-10-10-10-10-10-10-10-10-10-10-10-|
|-10-10-10-10-10-10-10-10-10-10-10-10-10-10-10-10-|
|-12p11-11-11-12p11-11-12----12-11-11-12p11-11-11-|
|-12-12-12-12-12-12-12-12----12-12-12-12-12-12-12-|
|-------------------------------------------------|
|-------------------------------------------------|
|
|----------------------------------------------|
|  S  S  S  S  S  S  S  S  S  S  S  S  S  S  S  S
|--x--x--x--x--x--x--x--x--x--x--x--x--x--x--x--x-|
|--x--x--x--x--x--x--x--x--x--x--x--x--x--x--x--x-|
|--x--x--x--x--x--x--x--x--x--x--x--x--x--x--x--x-|
|-------------------------------------------------|
|-------------------------------------------------|
|-------------------------------------------------|


     S  S  S  S  S  S  S  S  S  S  S  S  S  S  S  S
||--10-10-10-10-10-10-10-10-10-10-10-10-10-10-10-10-|
||o-10-10-10-10-10-10-10-10-10-10-10-10-10-10-10-10-|
||--12p11-11-11-12p11-11-12----12-11-11-12p11-11-11-|
||--12-12-12-12-12-12-12-12----12-12-12-12-12-12-12-|
||o-------------------------------------------------|
||--------------------------------------------------|
|
|    PM----------------------------------------------
|    S  S  S  S  S  S  S  S  S  S  S  S  S  S  S  S
||---x--x--x--x--x--x--x--x--x--x--x--x--x--x--x--x-|
||o--x--x--x--x--x--x--x--x--x--x--x--x--x--x--x--x-|
||---x--x--x--x--x--x--x--x--x--x--x--x--x--x--x--x-|
||--------------------------------------------------|
||o-------------------------------------------------|
||--------------------------------------------------|


   S  S  S  S  S  S  S  S  S  S  S  S  S  S  S  S  9x
|-10-10-10-10-10-10-10-10-10-10-10-10-10-10-10-10--||
|-10-10-10-10-10-10-10-10-10-10-10-10-10-10-10-10-o||
|-12p11-11-11-12p11-11-12----12-11-11-12p11-11-11--||
|-12-12-12-12-12-12-12-12----12-12-12-12-12-12-12--||
|-------------------------------------------------o||
|--------------------------------------------------||
|
|----------------------------------------------|
|  S  S  S  S  S  S  S  S  S  S  S  S  S  S  S  S  9x
|--x--x--x--x--x--x--x--x--x--x--x--x--x--x--x--x--||
|--x--x--x--x--x--x--x--x--x--x--x--x--x--x--x--x-o||
|--x--x--x--x--x--x--x--x--x--x--x--x--x--x--x--x--||
|--------------------------------------------------||
|-------------------------------------------------o||
|--------------------------------------------------||


                                                  Gt
   W
                                                  Gt
   S  S  S  S  S  S  S  S  S  S  S  S  S  S  S  S
|-10-10-10-10-10-10-10-10-10-10-10-10-10-10-10-10-||
|-10-10-10-10-10-10-10-10-10-10-10-10-10-10-10-10-||
|-12p11-11-11-12p11-11-12----12-11-11-12p11-11-11-||
|-12-12-12-12-12-12-12-12----12-12-12-12-12-12-12-||
|-------------------------------------------------||
|-------------------------------------------------||
|
|  PM------------------------------------------|
|  S  S  S  S  S  S  S  S  S  S  S  S  S  S  S  S
|--x--x--x--x--x--x--x--x--x--x--x--x--x--x--x--x-||
|--x--x--x--x--x--x--x--x--x--x--x--x--x--x--x--x-||
|--x--x--x--x--x--x--x--x--x--x--x--x--x--x--x--x-||
|-------------------------------------------------||
|-------------------------------------------------||
|-------------------------------------------------||


 Outro
  D
 r III
   W
   |
   /

 rs I, II
   E  E  E  E  S  S  S  S  E  S  S
|-10----------------------10----10-|
|----10-------------10-------10----|
|-------12-11-12p11----12----------|
|----------------------------------|
|----------------------------------|
|----------------------------------|
|
|  W
|----------------------------------|
|----------------------------------|
|----------------------------------|
|----------------------------------|
|----------------------------------|
|----------------------------------|


  +W                                 +W
   |                                  |
   /                                  /

   E  E  S  S  S  S  E  S  S  E  E    S  S  S  S  E  S  S  E  E  S  S  S  S
|-------------------10----10-------|-------------10----10-------------------|
|-------------10-------10----------|-------10-------10----------------10----|
|-12-11-12p11----12----------12-11-|-12p11----12----------12-11-12p11----12-|
|----------------------------------|----------------------------------------|
|----------------------------------|----------------------------------------|
|----------------------------------|----------------------------------------|


  G
   W
   |
   /

   E  S  S  E  E  S  S  S  S  E  S  S
|-10----10-------------------10----10-|
|----10----------------10-------10----|
|----------12-11-12p11----12----------|
|-------------------------------------|
|-------------------------------------|
|-------------------------------------|


  +W                                 +W
   |                                  |
   /                                  /

   E  E  S  S  S  S  E  S  S  E  E    S  S  S  S  E  S  S  E  E  S  S  S  S
|-------------------10----10-------|-------------10----10-------------------|
|-------------10-------10----------|-------10-------10----------------10----|
|-12-11-12p11----12----------12-11-|-12p11----12----------12-11-12p11----12-|
|----------------------------------|----------------------------------------|
|----------------------------------|----------------------------------------|
|----------------------------------|----------------------------------------|


  D
   W                                    +W
   |                                     |
   /                                     /

   E  S  S  E  E  S  S  S  S  E  S  S    S  S  S  S  E  S  S  E  E  S  S  S  S
|-10----10-------------------10----10-|-------------10----10-------------------|
|----10----------------10-------10----|-------10-------10----------------10----|
|----------12-11-12p11----12----------|-12p11----12----------12-11-12p11----12-|
|-------------------------------------|----------------------------------------|
|-------------------------------------|----------------------------------------|
|-------------------------------------|----------------------------------------|


                                           G
  +W                                        W
   |                                        |
   /                                        /

   S  S  S  S  E  S  S  E  E  S  S  S  S    E  S  S  E  E  S  S  S  S  E  S  S
|-------------10----10-------------------|-10----10-------------------10----10-|
|-------10-------10----------------10----|----10----------------10-------10----|
|-12p11----12----------12-11-12p11----12-|----------12-11-12p11----12----------|
|----------------------------------------|-------------------------------------|
|----------------------------------------|-------------------------------------|
|----------------------------------------|-------------------------------------|


  +W                                 +W
   |                                  |
   /                                  /

   E  E  S  S  S  S  E  S  S  E  E    S  S  S  S  E  S  S  E  E  S  S  S  S
|-------------------10----10-------|-------------10----10-------------------|
|-------------10-------10----------|-------10-------10----------------10----|
|-12-11-12p11----12----------12-11-|-12p11----12----------12-11-12p11----12-|
|----------------------------------|----------------------------------------|
|----------------------------------|----------------------------------------|
|----------------------------------|----------------------------------------|


  Bm
   W                                    +W
   |                                     |
   /                                     /

   E  S  S  E  E  S  S  S  S  E  S  S    E  E  S  S  S  S  E  S  S  E  E
|-10----10-------------------10----10-|-------------------10----10-------|
|----10----------------10-------10----|-------------10-------10----------|
|----------12-11-12p11----12----------|-12-11-12p11----12----------12-11-|
|-------------------------------------|----------------------------------|
|-------------------------------------|----------------------------------|
|-------------------------------------|----------------------------------|


                                           A5
  +W                                        W
   |                                        |
   /                                        /

   S  S  S  S  E  S  S  E  E  S  S  S  S    E  S  S  E  E  S  S  S  S  E  S  S
|-------------10----10-------------------|-10----10-------------------10----10-|
|-------10-------10----------------10----|----10----------------10-------10----|
|-12p11----12----------12-11-12p11----12-|----------12-11-12p11----12----------|
|----------------------------------------|-------------------------------------|
|----------------------------------------|-------------------------------------|
|----------------------------------------|-------------------------------------|


  +W
   |
   /

   S  S  S  S  E  S  S  E  E  S  S  S  S
|-------------10----10-------------------|
|-------10-------10----------------10----|
|-12p11----12----------12-11-12p11----12-|
|----------------------------------------|
|----------------------------------------|
|----------------------------------------|


  +W
   |
   /

   S  S  S  S  S  S  S  S  S  S  S  S  S  S  S  S
|----10-------10-------10-------10-------10-------|
|-------10-10----10-------10-------10-------10----|
|-12----------------12-------12-------12-------12-|
|-------------------------------------------------|
|-------------------------------------------------|
|-------------------------------------------------|


  D5
   W
   |
   /

   S  S  S  S  S  S  S  S  S  S  S  S  S  S  S  S
|-10-------10-------10-------10-------10-------10-|
|----10-------10-------10-------10-------10-------|
|-------11-------11-------11-------11-------11----|
|-------------------------------------------------|
|-------------------------------------------------|
|-------------------------------------------------|


  +W
   |
   /

   S  S  S  S  S  S  S  S  S  S  S  S  S  S  S  S
|-------10-------10-------10-------10-------10----|
|-10-------10-------10-------10-------10-------10-|
|----11-------11-------11-------11-------11-------|
|-------------------------------------------------|
|-------------------------------------------------|
|-------------------------------------------------|


  +W                                                 +W            +W
   |                                                  |             |
   /                                                  /             /

   S  S  S  S  S  S  S  S  S  S  S  S  S  S  S  S     W            +W
|----10-------10-------10-------10-------10-------|-(10)--------|-(10)----*|
|-------10-------10-------10-------10-------10----|-(10)--------|-(10)----*|
|-11-------11-------11-------11-------11-------11-|-(11)--------|-(11)----*|
|-------------------------------------------------|-------------|---------*|
|-------------------------------------------------|-------------|---------*|
|-------------------------------------------------|-------------|---------*|


Duration Legend
---------------
W - whole; H - half; Q - quarter; E - 8th; S - 16th; T - 32nd; X - 64th; a - acciaccatura
+ - note tied to previous; . - note dotted; .. - note double dotted
Uncapitalized letters represent notes that are staccato (1/2 duration)
Irregular groupings are notated above the duration line
Duration letters will always appear directly above the note/fret number it represents the
duration for.  Duration letters with no fret number below them represent rests.  Multi-
bar rests are notated in the form Wxn, where n is the number of bars to rest for.  Low
melody durations appear below the staff

Tablature Legend
----------------
 h   - hammer-on
 p   - pull-off
 b   - bend
 pb  - pre-bend
 r   - bend release (if no number after the r, then release immediately)
 /\  - slide into or out of (from/to "nowhere")
 s   - legato slide
 S   - shift slide
  - natural harmonic
[n]  - artificial harmonic
n(n) - tapped harmonic
 ~   - vibrato
 tr  - trill
 T   - tap
 TP  - trem. picking
 PM  - palm muting
\n/  - tremolo bar dip; n = amount to dip
 \n  - tremolo bar down
 n/  - tremolo bar up
/n\  - tremolo bar inverted dip
 =   - hold bend; also acts as connecting device for hammers/pulls
 <>  - volume swell (louder/softer)
 x   - on rhythm slash represents muted slash
 o   - on rhythm slash represents single note slash

Misc Legend
-----------
 |  - bar
||  - double bar
||o - repeat start
o|| - repeat end
*|  - double bar (ending)
 :  - bar (freetime)
 $  - Segno
 &  - Coda
Tempo markers -  = BPM(8/16=s8/s16), where s8 = swing 8ths, s16 = swing 16ths





I wanna run
I want to hide
I wanna  tear down the walls
That hold me inside
I wanna reach out
And touch the flame
Where the streets have no name

I wanna feel sunlight on my face
I see the dust- cloud disappear
Without a trace
I wanna take shelter from the poison rain
Where the streets have no name

Where the streets have no name
Where the streets have no name
We're still building and burning down love
Burning down love
And when I go there
I go there with you
(It's all I can do)

The city's a flood and our love turns to rust
We're beaten and blown by the wind
Trampled in dust
I'll show you a place
High on a desert plain
Where the streets have no name

Where the streets have no name
Where the streets have no name
We're still building and burning down love
Burning down love

And when I go there
I go there with you
(It's all I can do)
Our love turns to rust
We're beaten and blown by the wind
Blown by the wind
Oh, and I see love
See our love turn to rust
We're beaten and blown by the wind
Blown by the wind
Oh, when I go there
I go there with you
It's all I can do

            
            
Suggest correction
Creating personal tab
Creating personal tab
You can edit any tab online and save it as your Personal.

You can edit, replace or remove any tab part or add personal notes – all changes will be seen only by you.

Personal tabs can be accessed anytime from any device, even offline.
Learn more »
Give kudos to tab author, rate the tab!
1 2 3 4 5
comments
print report bad tab
guest
You may want to rate the tab now too:
select rating
Wanna post a correction for this tab? Suggest correction