Oops, an error
Loading. Please wait.

Window In The Skies Tab

version 1
version 1

Whole song

Interactive

by U2
5,317 views 12 this week
no commentswrite comment
1 2 3 4 5
please rate
add to favorites
launch autoscroll
font size
0
reset
how to read this tab
guitar tuner
Autoscroll
slow
fast
+/-
esc
set tempo
stop
Help us to improve Ultimate-Guitar.com Take our survey!
×
Difficulty
intermediate
U2 - Window In the Skies

Tabbed by Cameron Forward

4/4 timing, standard tuning

Why has no-one tabbed this song yet? It's been out for probably almost half a year. It 
a while to work out the intro (mainly due to all the delay

everywhere) but I think its fairly close, I would say 85% accurate...near enough, and 
the awesomeness of Edge :)

Intro
(delay on - tap in at 4/4, not 6/8 like it may sound)

e|-10-7-----7---10-8-----7---10-7-----7---10--------------|
B|------8-----8------8-----8------8-----8----10-8-10-8----|
G|--------7------------7------------7------------------7--|
D|--------------------------------------------------------|
A|--------------------------------------------------------|
E|--------------------------------------------------------|

Verse 1
(delay off)

e|--------------------------------------------|
B|--------------------------------------------|
G|-12-10-9------------------------------------|
D|---------10----(hit each note 12 times)-----|
A|--------------------------------------------|
E|--------------------------------------------|

Prechorus
(delay on)

e|-10-----------------------------------------|
B|----10-8-10-8-------------------------------|
G|--------------7-----------------------------| x4
D|--------------------------------------------|
A|--------------------------------------------|
E|--------------------------------------------|

(delay off)
e|--------------------------------------------|
B|---3-1-0---3-1-0----------------------------|
G|--------------------------------------------|
D|-2-------2----------------------------------|
A|--------------------------------------------|
E|--------------------------------------------|

Chorus - Edge just plays chords here

most of this is violins and stuff - if someone wants to transpose it to guitar then 
feel free :)

G D Am C

G D Am C

G D Am C D


Verse 2

e|--------------------------------------------|
B|--------------------------------------------|
G|-12-10-9------------------------------------|
D|---------10----(hit each note 12 times)-----|
A|--------------------------------------------|
E|--------------------------------------------|

Prechorus
(delay on)

e|-10-----------------------------------------|
B|----10-8-10-8-------------------------------|
G|--------------7-----------------------------| x4
D|--------------------------------------------|
A|--------------------------------------------|
E|--------------------------------------------|

(delay off)
e|--------------------------------------------|
B|---3-1-0---3-1-0----------------------------|
G|--------------------------------------------|
D|-2-------2----------------------------------|
A|--------------------------------------------|
E|--------------------------------------------|

Chorus

G D Am C

G D Am C

G D Am C D

Bridge

Pick F#m B F#m B C (mainly high pitch notes)

Solo

e|--------------------------------------------|
B|--------------------------------------------|
G|--------------------------------------------|
D|--------------------------------------------| x2
A|------2-2/10-8~-7-5-3-7b8b7-5-3-2-5-3-2-0---|
E|-/3-5---------------------------------------|

Prechorus 2
(delay on)
   G           D              Am            C
e|-------7------------10-------------8-------------8--------|
B|---8-----8-----10------10-----10-----10-----10-----10-----|
G|-7---7-----7-7----7-------7-9----9------9-9----9------9---|
D|----------------------------------------------------------| x2
A|----------------------------------------------------------|
E|----------------------------------------------------------|

Chorus x2
(delay off)

G D Am C

G D Am C

G D Am C D

Outro (same as intro)
(delay on)

e|-10-7-----7---10-8-----7---10-7-----7---10--------------|
B|------8-----8------8-----8------8-----8----10-8-10-8----|
G|--------7------------7------------7------------------7--|
D|--------------------------------------------------------|
A|--------------------------------------------------------|
E|--------------------------------------------------------|
Suggest correction
Give kudos to tab author, rate the tab!
1 2 3 4 5
comments
print report bad tab
guest
You may want to rate the tab now too:
select rating
Wanna post a correction for this tab? Suggest correction