Oops, an error
Loading. Please wait.

With Or Without You Tab

version 4
version 4

Whole song

Video

by U2
11,616 views 6 this week
no commentswrite comment
1 2 3 4 5
please rate
add to favorites
launch autoscroll
font size
0
reset
how to read this tab
guitar tuner
Autoscroll
slow
fast
+/-
esc
set tempo
stop
Help us to improve Ultimate-Guitar.com Take our survey!
×
Author
Difficulty
novice
-------------------------------------------------------------------------------
                         With or Without you - U2
-------------------------------------------------------------------------------
Tabbed by:Snygging200
Email:Jonas-sjodin@hotmail.com

Intro:

e|--10----10----10----10----10----10----10----10-----|
B|----10----10----10----10----10----10----10----10---|
G|------9-----9-----9-----9-----9-----9-----9-----9--|
D|---------------------------------------------------|
A|---------------------------------------------------|
E|---------------------------------------------------|

Repeat:22 times


e|----10---10-10---10--------------|
B|--8----8-------8----7------------|
G|------------------------------0--|
D|------------------------0--------|
A|---------------------------------|
E|---------------------------------|

Repeat 8 times

e|----10---10-10---10----|
B|--8----8-------8----7--|
G|-----------------------|
D|-----------------------|
A|-----------------------|
E|-----------------------|

e|14--10--12--14--10----14--10--12--14--|
B|--------------------------------------|
G|--------------------------------------|
D|--------------------------------------|
A|--------------------------------------|
E|--------------------------------------|




e|--2--0----2--0--|
B|--0--0----0--0--|
G|----------------|
D|----------------|
A|----------------|
E|----------------|

e|----10---10-10---10--------------|
B|--8----8-------8----7------------|
G|------------------------------0--|
D|------------------------0--------|
A|---------------------------------|
E|---------------------------------|

Repeat 4 times

e|----10---10-10---10----|
B|--8----8-------8----7--|
G|-----------------------|
D|-----------------------|
A|-----------------------|
E|-----------------------|

e|--10-10--10--10-10-----10--10--10-10--|
B|----------------------9---9---9--8----|
G|--------------------------------------|
D|--------------------------------------|
A|--------------------------------------|
E|--------------------------------------|

Pause
e|--14--14-----|
B|---------15--|
G|-------------|
D|-------------|
A|-------------|
E|-------------|


e|----10---10-10---10--------------|
B|--8----8-------8----7------------|
G|------------------------------0--|
D|------------------------0--------|
A|---------------------------------|
E|---------------------------------|

Repeat:4 times

e|----10---10-10---10----|
B|--8----8-------8----7--|
G|-----------------------|
D|-----------------------|
A|-----------------------|
E|-----------------------|


e|--10----10----10----10----10----10----10----10-----|
B|----10----10----10----10----10----10----10----10---|
G|------9-----9-----9-----9-----9-----9-----9-----9--|
D|---------------------------------------------------|
A|---------------------------------------------------|
E|---------------------------------------------------|

Repeat:4 times


e|--2-2-2-2-0-0-0-0-2-2-2-2-3-3-3-3-2-2-2-2--|
B|-------------------------------------------|
G|-------------------------------------------|
D|-------------------------------------------|
A|-------------------------------------------|
E|-------------------------------------------|




e|----10---10-10---10--------------|
B|--8----8-------8----7------------|
G|------------------------------0--|
D|------------------------0--------|
A|---------------------------------|
E|---------------------------------|

Repeat:4 times


e|----10---10-----10-10-10-10-12-10-10-10-10--|
B|--7----7----7-8-----------------------------|
G|--------------------------------------------|
D|--------------------------------------------|
A|--------------------------------------------|
E|--------------------------------------------|



************************************

| /   slide up
| \   slide down
| h   hammer-on
| p   pull-off
| ~   vibrato
| +   harmonic
| x   Mute note
| b   Bend
| pb  Pre-bend
| br  Bend release
| pbr Pre-bend release
| brb Bend release bend

************************************
Suggest correction
Give kudos to tab author, rate the tab!
1 2 3 4 5
comments
print report bad tab
guest
You may want to rate the tab now too:
select rating
Please do not post tabs as comments. Select "correction" instead!