Oops, an error
Loading. Please wait.

Alum Rock bass

by UB40
151 views 1 this week
no commentswrite comment
1 2 3 4 5
2 more votes to show rating
add to favorites
×
Save as Personal and add changes to this tab that will be seen only by you. Learn more ›
×
You can save this tab as Personal to edit and correct it or add notes. All changes will be seen only by you. Learn more »
launch autoscroll
font size
0
reset
guitar tuner
edit
Autoscroll
slow
fast
+/-
esc
set tempo
stop
Here is the Bass Tab for UB40`s `Alum Rock` taken from their 2007 `DUB SESSIONS` album.
[a DUB version of their track `Securing The Peace`]

[Intro]"Check dis",Drums And Horns

     G|-----|-------------|----------------------|--------------------|---------------------|
     D|-----|-------------|----------------------|--------------------|---------------------|
     A|-----|3-3--3-3--3-3|----------------------|3-3--3-3--1-3-3--3-3|---------------------|
     E|--3-3|----3----3---|1-1--0-1-1--1-3-3--3-3|----3---------------|1-1--0-1-1--1-3-3--3-|


 
G|----------------------|--------------------|----------------------|-------------------|
D|----------------------|--------------------|----------------------|-------------------|
A|----------------------|3-3--3-3--1-3-3--3-3|----------------------|3-3--3-3--3-1-1----|
E|1-1--0-1-1--0-1-1--1-1|----3---------------|1-1--0-1-1--1-3-3--3-3|----3-----------3-3|

G|---------------|----------------------|---------------------|----------------------|
D|---------------|----------------------|---------------------|----------------------|
A|3-3--3-3--3-3--|----------------------|3-3--1-3-3---3-3--3-3|----------------------|
E|----3----3-----|1-1--0-1-1--1-3-3--3-3|-----------3---------|1-1--0-1-1--1-3-3--3-3|

G|--------------------|-----------------|-----------------------|----------------------|
D|--------------------|-----------------|-----------------------|----------------------|
A|--------------------|3-3--3-3--3~3--3~|-----------------------|3-3--1-3-3--3-1--1--1-|
E|1-1---0-1-1-0-1~-1-1|----3----3-------|1-1--0-1-1--1-3--3--3--|----------------------|

This is tabbed first time around but just go back to the beginning and play over with a rare variation 
at the end of certain bars which are tabbed and so easy to find as it`s a spacious deep DUB Bass line.

Comments or corrections always welcome.
 

            
            
Suggest correction
Creating personal tab
Creating personal tab
You can edit any tab online and save it as your Personal.

You can edit, replace or remove any tab part or add personal notes – all changes will be seen only by you.

Personal tabs can be accessed anytime from any device, even offline.
Learn more »
Give kudos to tab author, rate the tab!
1 2 3 4 5
comments
print report bad tab
guest
You may want to rate the tab now too:
select rating
Wanna post a correction for this tab? Suggest correction