Oops, an error
Loading. Please wait.

Blue Eyes Crying In The Rain bass

by UB40
872 views 3 this week
no commentswrite comment
1 2 3 4 5
1 last vote to show rating
add to favorites
×
Save as Personal and add changes to this tab that will be seen only by you. Learn more ›
×
You can save this tab as Personal to edit and correct it or add notes. All changes will be seen only by you. Learn more »
launch autoscroll
font size
0
reset
guitar tuner
edit
Autoscroll
slow
fast
+/-
esc
set tempo
stop
Here is the Bass Tab & Chord Structure for the Radio/Video Edit of 
"Blues Eyes Crying In The Rain" UB40`s new U.K single taken
from their forthcoming album "Getting Over The Storm".

Intro & Verse:
 E                                  B                E
G||-------|--------|-------|--------|-------|--------|-------|--------||
D||2-222-2|222-2-02|2-222-2|222-2-02|-------|--------|2-222-2|222-2-02||
A||-------|--------|-------|--------|2-222-2|222-2-02|-------|--------||
E||-------|--------|-------|--------|-------|--------|-------|--------||

Lead to & Chorus:
 A7                                E                B
G|-------|--------|-------|--------|-------|--------|-------|--------|
D|-------|--------|-------|--------|2-222-2|222-2-02|-------|--------|
A|-------|--------|-------|--------|-------|--------|2-222-2|222-2-02|
E|5-555-5|555-5-35|5-555-5|555-5-35|-------|--------|-------|--------|

 E                                 B                E
G|-------|--------|-------|--------|-------|--------|-------|--------|
D|2-222-2|222-2-02|2-222-2|222-2-02|-------|--------|2-222-2|222-2-02|
A|-------|--------|-------|--------|2-222-2|222-2-02|-------|--------|
E|-------|--------|-------|--------|-------|--------|-------|--------|

Note:This is a good start to the new single,It may differ on the
album when it`s released?But the three chord will stay the same so you
got that!
The Bass is very similar to the Radio/Video Edit!
The bars are confusing but it`ll do for now.

            
            
Suggest correction
Creating personal tab
Creating personal tab
You can edit any tab online and save it as your Personal.

You can edit, replace or remove any tab part or add personal notes – all changes will be seen only by you.

Personal tabs can be accessed anytime from any device, even offline.
Learn more »
Give kudos to tab author, rate the tab!
1 2 3 4 5
comments
print report bad tab
guest
You may want to rate the tab now too:
select rating
Wanna post a correction for this tab? Suggest correction