Oops, an error
Loading. Please wait.

Breakfast In Bed Bass Tab

by UB40
761 views 1 this week
no commentswrite comment
1 2 3 4 5
please rate
add to favorites
launch autoscroll
font size
0
reset
guitar tuner
Tab Pro tools
  • play this tab
  • loop segment
  • change instrument
  • show fretboard
  • metronome
×
Best way to learn
"Breakfast In Bed"
Autoscroll
slow
fast
+/-
esc
set tempo
stop
Contributor
This is a tab(& chord)of Breakfast in bed(with:Chrissie Hynde),Taken from UB40s self 
titled album:

Drums:F   Bb  F   Bb     :F    Bb     F    Bb     F    Bb     F     F
    G:-------------------:------------------------------------:--------------|
    D:-------------------:-3------0---3------0----3------0----:3----3--------|
    A:----10------1-1-1-1:------13-31------13-31-------13-31-1:--------------|
    E:1-----31-----------:---1----------1-----------1---------:--1----1------|

she`s hurt you again:
          :Eb           Dm        Cm          Bb    Bb
         G:-8-----------7----------5----------:3----3----|
         D:--------5--------------------------:----------|
         A:---6--68-86----5--56865---3--35653-:--1----1--|
         E:-----------------------------------:----------|
(Ali)don`t be shy:-Return to the :F & play over!
comments
We did not receive enough feedback on this tab! Please rate:
print report bad tab
1 2 3 4 5
I want to post or [tab]
guest
You may want to rate the tab now too:
select rating
Please do not post tabs as comments. Select "correction" instead!