Oops, an error
Loading. Please wait.

Breakfast In Bed Bass Tab

by UB40
833 views 3 this week
no commentswrite comment
1 2 3 4 5
1 last vote to show rating
add to favorites
launch autoscroll
font size
0
reset
guitar tuner
Autoscroll
slow
fast
+/-
esc
set tempo
stop
Help us to improve Ultimate-Guitar.com Take our survey!
×
Author
Difficulty
intermediate
This is the Bass Tab(and Chord pattern)for UB40`s version of 'Breakfast In Bed'(with: Chrissie Hynde),
It was a single taken from UB40`s 1988 self titled album....

[Drums Intro]
              F       Bb      F       Bb       
            G|-------|-------|-------|------|------|
            D|-------|-------|-------|------|------|
            A|-------|1-0----|-------|1--1--|1--1--|
            E|1------|----3-1|1------|------|------|
                             >
[Verse 1 Chrissie]
  F       Bb        F       Bb        F       Bb        F       
G|-------|---------|-------|---------|-------|---------|-------|-------| 
D|--3----|----0----|--3----|----0----|--3----|----0----|--3----|--3----|
A|-------|1-3---3-1|-------|1-3---3-1|-------|1-3---3-1|-------|-------|
E|----1--|---------|----1--|---------|----1--|---------|----1--|----1--|

[Bridge 1 Chrissie]
  Eb                Dm                Cm                Bb      
G|--8----|---------|--7----|---------|--5----|---------|--3----|--3----|
D|-------|----5----|-------|----5----|-------|--1-3-1--|-------|-------|
A|----6--|6-8---8-6|----5--|5-8---8-5|----3--|3-------3|----1--|----1--|
E|-------|---------|-------|---------|-------|---------|-------|-------|

[Verse 2 Ali]
  F       Bb        F       Bb        F       Bb        F       
G|-------|---------|-------|---------|-------|---------|-------|-------|
D|--3----|----0----|--3----|----0----|--3----|----0----|--3----|--3----|
A|-------|1-3---3-1|-------|1-3---3-1|-------|1-3---3-1|-------|-------|
E|----1--|---------|----1--|---------|----1--|---------|----1--|----1--|

[Bridge 2 Ali]
  Eb                                  Cm                                  F
G|--8----|---------|--8----|---------|--5----|---------|--5----|---------|-------|-------|-------|
D|-------|----5----|-------|----5----|-------|---------|-------|---------|--3----|--3----|--3----|
A|----6--|6-8---8-6|----6--|6-8---8-6|----3--|3-5-6-5-3|----3--|3-5-6-5-3|-------|-------|-------|
E|-------|---------|-------|---------|-------|---------|-------|---------|----1--|----1--|----1--|

[Chorus 1]
  Bb      Eb        Bb      Eb        Bb      Ab      Eb        Bb      Eb        Bb
G|--3----|---------|--3----|---------|--3----|-------|---------|--3----|---------|--3----|
D|-------|----5----|-------|----5----|-------|--6----|----5----|-------|----5----|-------|
A|----1--|6-8---8-6|----1--|6-8---8-6|----1--|-------|6-8---8-6|----1--|6-8---8-6|----1--|
E|-------|---------|-------|---------|-------|----4--|---------|-------|---------|-------|
  Eb                Bb
G|---------|--8----|--3----|--3----|
D|----5----|-------|-------|-------|
A|6-8---8-6|----6--|----1--|----1--|
E|---------|-------|-------|-------|

[Saxophone Instrumental]
  F       Bb         F      Bb
G|-------|---------|-------|--------|--------|
D|--3----|----0----|--3----|--------|--------|
A|-------|1-3---3-1|-------|1---1---|1---1---|
E|----1--|---------|----1--|--------|--------|

[Verse 3 Chrissie]
  F       Bb        F       Bb        F       Bb        F
G|-------|---------|-------|---------|-------|---------|-------|-------|
D|-------|----0----|--3----|----0----|--3----|----0----|--3----|--3----|
A|-------|1-3---3-1|-------|1-3---3-1|-------|1-3---3-1|-------|-------|
E|--1-1--|---------|----1--|---------|----1--|---------|----1--|----1--|

[Bridge 3 Ali]
  Eb                                  Cm                                  F
G|--8----|---------|--8----|---------|--5----|---------|--5----|---------|-------|-------|-------|
D|-------|----5----|-------|----5----|-------|---------|-------|---------|--3----|--3----|--3----|
A|----6--|6-8---8-6|----6--|6-8---8-6|----3--|3-5-6-5-3|----3--|3-5-6-5-3|-------|-------|-------|
E|-------|---------|-------|---------|-------|---------|-------|---------|----1--|----1--|----1--|

[Chorus 2]
  Bb      Eb        Bb      Eb        Bb      Ab      Eb        Bb     Eb         Bb
G|--3----|---------|--3----|---------|--3----|-------|---------|--3----|---------|--3----|
D|-------|----0----|-------|----0----|-------|--6----|----0----|-------|----0----|-------|
A|----1--|6-8---8-6|----1--|6-8---8-6|----1--|-------|6-8---8-6|----1--|6-8---8-6|----1--|
E|-------|---------|-------|---------|-------|----4--|---------|-------|---------|-------|

Eb                  Bb
G|---------|--8----|--3----|--3----|
D|----0----|-------|-------|-------|
A|6-8---8-6|----6--|----1--|----1--|
E|---------|-------|-------|-------|

[Outro Chorus `Till Fade]
   F       Bb        F       Bb         F      Bb        F
G||O-------|---------|-------|---------|-------|---------|-------O||
D||O--3----|----0----|--3----|----0----|--3----|----0----|--3----0||
A||0-------|1-3---3-1|-------|1-3---3-1|-------|1-3---3-1|-------O||
E||O----1--|---------|----1--|---------|----1--|---------|----1--O||

[Legend]

| > Hold.  | ||O----|----O|| Repeat Measures.


Comments/Corrections?....



Suggest correction
Give kudos to tab author, rate the tab!
1 2 3 4 5
comments
print report bad tab
guest
You may want to rate the tab now too:
select rating
Wanna post a correction for this tab? Suggest correction