Oops, an error
Loading. Please wait.

Burden Of Shame Bass Tab

by UB40
1,717 views 1 this week
no commentswrite comment
1 2 3 4 5
excellent!
x 3
add to favorites
launch autoscroll
font size
0
reset
guitar tuner
Autoscroll
slow
fast
+/-
esc
set tempo
stop
Help us to improve Ultimate-Guitar.com Take our survey!
×
Author
    Title - Burden of Shame
    Artist - UB40
    Album - Signing Off
    Tabbed by - Mat Bean
    E-mail - mattydread2@yahoo.com

      intro/riff 1
  G|-----------------------------------------|
  D|-------777--------------------4-0h40h40--|
  A|--9999-----5-555-555------555------------|
  E|---------------------7777----------------|

  G|-----------------------------------------|
  D|-------777--------------------4-0h40h40--|
  A|--9999-----5-555-555------555------------|
  E|---------------------7777----------------|

       verse/riff 2
  G|-----------------------------------------|
  D|------------------------------4-0h40h40--|
  A|--9997--------------------555------------|
  E|-------999-7-777-7777777-----------------|

  G|-----------------------------------------|
  D|------------------------------4-0h40h40--|
  A|--9997---------------------555-----------|
  E|--------999-7-777-7777777----------------|
       repeat riff1

       riff 3
  G|-------------------------------------------|
  D|-------7777---------------------4-0h40h40--|
  A|--9999------5-55-5-55-------555------------|
  E|----------------------7-777----------------|

  G|-------------------------------------------|
  D|-------7777-------5-55----------4-0h40h40--|
  A|--9999------5-555-----------555------------|
  E|----------------------7-777----------------|

       before short inst. break
  G|---------------------------------|
  D|-------777--------------------4--|
  A|--9999-----5-555-555------555----|
  E|---------------------7777--------|

  G|---------------------------------|
  D|-------777--------------------4--|
  A|--9999-----5-555-555------555----|
  E|---------------------7777--------|
        repeat riff 2
        repeat riff 1

  during instumental outro (up tempo)
  G|---------------------|
  D|---------------------|
  A|-------77----7h97h9--|
  E|--7777----99---------|
       X4
  G|------------------------|
  D|------------------------|
  A|--97---797------7h97h9--|
  E|-----9-----9(7)---------|
        X4
    repeat these riffs X4 until end
Suggest correction
Give kudos to tab author, rate the tab!
1 2 3 4 5
comments
print report bad tab
guest
You may want to rate the tab now too:
select rating
Wanna post a correction for this tab? Suggest correction