Oops, an error
Loading. Please wait.

Gator Instrumental Bass Tab

by UB40
13 views 3 this week
no commentswrite comment
1 2 3 4 5
3 more votes to show rating
add to favorites
launch autoscroll
font size
0
reset
guitar tuner
Autoscroll
slow
fast
+/-
esc
set tempo
stop
Help us to improve Ultimate-Guitar.com Take our survey!
×
Author
Difficulty
A great UB40 B-Side for the single 'Homely Girl' from 1989 called 'Gator (instrumental)',
It`s real dominant yet very simple but effective and holds well against the Drums and the numerous Keyboards.

[Intro]
Effects happen for a while then four Bass Drum kicks happen with the opening Effects still going
as the Drums start fully and Keyboards begin for eight bars until this repeated Bass line.


G|-----------|-----------|-----------|-----------|-----------|-----------|-----------|-----------|
D|--------3--|-----------|--------3--|-----------|--------2--|-----------|--------2--|-----------|
A|5-5-5-5----|5-5-5-5-3--|5-5-5-5----|5-5-5-5-3--|5-5-5-5----|5-5-5-5-3--|5-5-5-5----|5-5-5-5-3--|
E|-----------|-----------|-----------|-----------|-----------|-----------|-----------|-----------|

G|-----------|-----------|-----------|-----------|-----------|-----------|-----------|-----------|
D|--------3--|-----------|--------3--|-----------|--------2--|-----------|--------2--|-----------|
A|5-5-5-5----|5-5-5-5-3--|5-5-5-5----|5-5-5-5-3--|5-5-5-5----|5-5-5-5-3~-|5-5-5-5----|5-5-5-5-3--|
E|-----------|-----------|-----------|-----------|-----------|-----------|-----------|-----------|
                                                                                               h p
G|-----------|-----------|-----------|-----------|-----------|-----------|-----------|-------------|
D|--------3--|-----------|--------3--|-----------|--------2--|-----------|--------2--|-------------|
A|5-5-5-5----|5-5-5-5-3--|5-5-5-5----|5-5-5-5-3--|5-5-5-5----|5-5-5-5-3--|5-5-5-5----|5-5-5---0-3-0|
E|-----------|-----------|-----------|-----------|-----------|-----------|-----------|-------------|

G||o-----------|-----------|-----------|-----------o||
D||o-----------|-----------|-----------|-----------o||
A||o-----------|-----------|-----------|-----------o||
E||o-----------|-----------|-----------|-----------o||
                                                .
G|-----------|-----------|-----------|-----------|-----------|-----------|-----------|-----------|
D|--------3--|-----------|--------3--|-----------|--------2--|-----------|--------2--|-----------|
A|5-5-5-5----|5-5-5-5-3--|5-5-5-5----|5-5-5-5-3-3|5-5-5-5----|5-5-5-5-3--|5-5-5-5----|5-5-5-5-3--|
E|-----------|-----------|-----------|-----------|-----------|-----------|-----------|-----------|

G|-----------|-----------|-----------|-----------|-----------|-----------|-----------|-------------|
D|-----------|-----------|--------3--|-----------|--------2--|-----------|--------2--|--5-5-5-5-7--|
A|-----------|-----------|5-5-5-5----|5-5-5-5-3--|5-5-5-5----|5-5-5-5-3--|5-5-5-5----|5------------|
E|-----------|-----------|-----------|-----------|-----------|-----------|-----------|-------------|

The above has all the parts for the song it`s quite long just repeat and find the stops
and the changes they`re towards the end of the track most of the track is the first line tabbed repeated.

~ Vibrato.
h hammer on.
p pull off.
. Stacatto.

 
Suggest correction
Give kudos to tab author, rate the tab!
1 2 3 4 5
comments
print report bad tab
guest
You may want to rate the tab now too:
select rating
Wanna post a correction for this tab? Suggest correction