Oops, an error
Loading. Please wait.

Groovin Bass Tab

by UB40
804 views 1 this week
no commentswrite comment
1 2 3 4 5
x 3
add to favorites
launch autoscroll
font size
0
reset
guitar tuner
Autoscroll
slow
fast
+/-
esc
set tempo
stop
Help us to improve Ultimate-Guitar.com Take our survey!
×
Intro: 
Verse:
I get my kicks from watching people 
Running too and fro
And if you ask them where they are going
Half of them don't know
They're the ones who think I'm crazy
But they don't  realize 

Chorus:
That I'm just groovin', grooving
Grooving out on life
I'm just groovin' ooh grooving'
Grooving till I die

Verse 2:
I see the river flowing by me
Heading for the sea
I get a feeling deep inside me 
It's so good to be free
I've got sunshine in the daytime
And moonlight every night 
And I'm just groovin
Chorus
Verse2
Chorus:
G|----------------------------------|-------------------------------------|
D|----------------------------------|-------------------------------------|
A|---------------7-6-4-4--4-4--4--4-|--4-4--4--4-4--4---4---6-6--6--6-----|
E|4-4--4-4--4--4--------------------|7--------------------7------------7--|

Refrain:

G|----------------------------------|-------------------------------------|
D|----------------------------------|-------------------------------------|
A|---------------7-6-4-4--4-4--4--4-|--4-4--4--4---6-6--6--6-4------------|
E|4-4--4-4--4--4--------------------|7-----------7-------------7-4--4-----|

Play continously until song finish
Suggest correction
Give kudos to tab author, rate the tab!
1 2 3 4 5
comments
print report bad tab
guest
You may want to rate the tab now too:
select rating
Wanna post a correction for this tab? Suggest correction