Oops, an error
Loading. Please wait.

Kingston Town Bass Tab

version 1
version 1

Whole song

Interactive

by UB40
22,523 views 54 this week
3 commentsread comments
1 2 3 4 5
accurate
x 6
add to favorites
launch autoscroll
font size
0
reset
guitar tuner
Autoscroll
slow
fast
+/-
esc
set tempo
stop
Help us to improve Ultimate-Guitar.com Take our survey!
×
Author
artist-ub40
song-kingston town
tabbed by mattydread2@yahoo.com


intro x2
G -----------------------------------------------------------|
D ------------------------------------66666------------------|
A --------66666---3---3-------3-4---4-------4-6---6-------6--|
E --4---4-------4-------33333-----------------------66666----|
    G#            C             C#            D#

verse 1
G -----------------------------------------------------------|
D -----------------------------------------------------------|
A --------66666---3---3-------3-4---4-------4-6---6-------6--|
E --4---4-------4-------33333---------44444---------66666----|

G -------------------------------|
D ----------------------88888----|
A --------66666---6---6-------6--|
E --4---4-------4----------------|


verse 2
G -----------------------------------------------------------|
D --------------------------------------------------88888----|
A --------66666---3---3-------3-4---4-------4-6---6-------6--|
E --4---4-------4-------33333---------44444------------------|

G -----------------------------------------------------------|
D ----------------------88888--------------------------------|
A --4---4-------4-6---6-------6-------66666---------66666----|
E --------44444-----------------4---4-------4-4---4-------4--|


chorus(key change)
G -----------------------------------------------------------|
D --------55555-------------------------------------55555----|
A --3---3-------3-------33333---------55555---3---3-------3--|
E ----------------1---1-------1-3---3-------3----------------|
    C#            F             G             C
G ------------------------------------------|
D ------------------------------------------|
A ---1slide3---1slide3---1slide3---1slide3--|
E -1---------1---------1---------1----------|
1h3 also sounds ok on the A string here

G -------------------------------------------------------------|
D --------33333---------33333----------88888--8--68-6----------|
A --1---1-------1-1---1-------1--6---6-------6--------868-6----|
E ----------------------------------------------------------8--|
    A#                               D#
return to verse 2


break
G -----------------------------------------------------------|
D -----------------------------------------------------------|
A --------66666---3---3-------3-4---4-------4-6---6-------6--|
E --4---4-------4-------33333---------44444---------66666----|

G -------------------------------------------------------------|
D ------------------------------------66666------6h86---6h8----|
A --------66666---3---3-------3-4---4-------4--6------6-----6--|
E --4---4-------4-------33333----------------------------------|
h=hammer on

return to chorus

outro                                                  (tens)
G------------------------------------------------------------------|
D --------66666-------------------------------------1010101010-----|
A --4---4-------4-6---6-------6-------66666---8---8------------8---|
E ----------------------66666---4---4-------4----------------------|

G--------------------------------------------------------------------|
D --------66666-----------------------------------8h108h10-----10----|
A --4---4-------4-6---6-------6-------66666---8--8--------8--8----8--|
E ----------------------66666---4---4-------4------------------------|....
Suggest correction
What's this?
You can suggest a correction to this tab. Community and Mods will review your correction and vote to approve or reject it.
comments
print report bad tab
3 comments total.
0 reply
Bassmangroovey 65 wrote on October 3 2015, 02:53 pm, edited at 02:54 pm

hi, i think those little corrections could help!
undefined

0 reply
Bassmangroovey 65 wrote on October 3 2015, 02:55 pm, edited at 02:55 pm

undefined

0 reply
Bassmangroovey 65 wrote on October 3 2015, 02:56 pm, edited at 02:57 pm

Intro
G -----------------------------------------------------------|
D ------------------------------------66666------------------|
A --------66666---3---3-------3-4---4-------4-6---6-------6--|
E --4---4-------4-------33333-----------------------66666----|

Verse 1
G -----------------------------------------------------------|
D -----------------------------------------------------------|
A --------66666---3---3-------3-4---4-------4-6---6-------6--|
E --4---4-------4-------33333---------44444---------66666----|

G -----------------------------------------------------------|
D –-–-----------------------------------------------88888----|
A -–4–--4-------4-6---6-------6-------66666---6---6-------6--|
E ––-–----44444---------66666---4---4-------4----------------|

G -----------------------------------------------------------|
D -----------------------------------------------------------|
A --------66666---3---3-------3-4---4-------4-6---6-------6--|
E --4---4-------4-------33333---------44444---------66666----|

G -----------------------------------------------------------|
D –-–----------------------------------------------–––––-----|
A -–4–--4-------4-6---6-------6-------66666--–---–--66666–---|
E ––-–----44444---------66666---4---4-------4-4---4-------4--|

Chorus
G -----------------------------------------------------------|
D --------55555-------------------------------------55555----|
A --3---3-------3-------33333---------55555---3---3-------3--|
E ----------------1---1-------1-3---3-------3----------------|

G --------------------------|
D --------------------------|
A ---1/3---1/3---1/3---1/3--|
E -1-----1-----1-----1------|

G -------------------------------------------------------------|
D --------33333---------33333----------88888--8--68-6----------|
A --1---1-------1-1---1-------1--6---6-------6--------86868----|
E ----------------------------------------------------------8--|

Verse 2
G -----------------------------------------------------------|
D -------------------------------------------------–––––-----|
A --------66666---3---3-------3-4---4-------4-6---6-------6--|
E --4---4-------4-------33333---------44444---------66666----|

G -----------------------------------------------------------|
D ---------------------–––––------------------------88888----|
A --4---4-------4-6---6-------6-------66666---6---6–––––-----|
E --------44444---------66666---4---4-------4–---–--------4--|

G -----------------------------------------------------------|
D --------------------------------------------------88888----|
A --------66666---3---3-------3-4---4-------4-6---6-------6--|
E --4---4-------4-------33333---------44444------------------|

G -----------------------------------------------------------|
D ----------------------88888----------------------–––––-----|
A --4---4-------4-6---6-------6-------66666--––----–66666----|
E --------44444-----------------4---4-------4–4--–4-------4--|

Break
G -----------------------------------------------------------|
D -----------------------------------------------------------|
A --------66666---3---3-------3-4---4-------4-6---6-------6--|
E --4---4-------4-------33333---------44444---------66666----|

G ------------------------------------------------------------–-|
D ------------------------------------66666------6/8\6---6/8\6–-|
A --------66666---3---3-------3-4---4-------4--6------6-6---–--6|
E --4---4-------4-------33333--------------------------------–--|

Chorus 2
G -----------------------------------------------------------|
D --------55555-------------------------------------55555----|
A --3---3-------3-------33333---------55555---3---3-------3--|
E ----------------1---1-------1-3---3-------3----------------|

G --------------------------|
D --------------------------|
A ---1/3---1/3---1/3---1/3--|
E -1-----1-----1-----1------|

G -------------------------------------------------------------|
D --------33333---------33333----------88888--8686----------––-|
A --1---1-------1-1---1-------1--6---6-------6----8-6—86––---–-|
E -------------------------------------------------------86464-|

Outro
G -----------------------------------------------------------|
D -------------------------------------------------–––––-----|
A --------66666---3---3-------3-4---4-------4-6---6-------6--|
E --4---4-------4-------33333---------44444---------66666----|

G -----------------------------------------------------------|
D --------------------------------------------------88888----|
A --4---4-------4-6---6-------6-------66666---6---6–––––--6--|
E --------44444---------66666---4---4-------4–---–-------–---|

G -----------------------------------------------------------|
D -------------------------------------------------–––––-----|
A --------66666---3---3-------3-4---4-------4-6---6-------6--|

guest
You may want to rate the tab now too:
select rating
Please do not post tabs as comments. Select "correction" instead!