Oops, an error
Loading. Please wait.

Music So Nice Bass Tab

by UB40
650 views 3 this week
no commentswrite comment
1 2 3 4 5
3 more votes to show rating
add to favorites
launch autoscroll
font size
0
reset
guitar tuner
Autoscroll
slow
fast
+/-
esc
set tempo
stop
Help us to improve Ultimate-Guitar.com Take our survey!
×
Title-Music so nice
Artist-UB40
Album-'UB40'
Tabbed by-Matt Bean
E-mail-mattydread2@yahoo.com


  chorus riff, x2 incl.intro
G|--------------------------------------------|
D|---1010-------------------------------------|
A|-88----8--8--1010-------1111---------1313---| (elevens&thirteens)
E|-----------88----8--8-99----9--9-1111----11-|

G|--------------------------------------------|
D|---1010-------------------------------------|
A|-88----8--8--1010-------1111---------1313---|
E|-----------88----8--8-99----9--9-1111----11-|

  end of chorus
G|--------------------------------|
D|---1010-------------------------|
A|-88----8--8--1010----998866-4-6-|
E|-----------88----8--8-----------|


  verse riff, repeat until chorus
G|------------------------------------|
D|-66--66-----------------------------|
A|---66--66-9-8-6-4---66--66----------|
E|------------------44--44---6-8-9-11-|
Suggest correction
Give kudos to tab author, rate the tab!
1 2 3 4 5
comments
print report bad tab
guest
You may want to rate the tab now too:
select rating
Wanna post a correction for this tab? Suggest correction