Oops, an error
Loading. Please wait.

Red Red Wine Bass Tab

version 1
version 1

Whole song

Interactive

by UB40
45,220 views 51 this week
5 commentsread comments
1 2 3 4 5
x 13
add to favorites
launch autoscroll
font size
0
reset
guitar tuner
Autoscroll
slow
fast
+/-
esc
set tempo
stop
Help us to improve Ultimate-Guitar.com Take our survey!
×
[Intro]
(0:00)
G|-------66---6----------------88---8------------|
D|-----------------44--4------------------66--6--|
A|-----4----4----------------6----6--------------| 
E|---------------2----2-----------------4----4---|

G|-------66---6----------------88---8------------|
D|-----------------44--4------------------66-4---|
A|-----4----4----------------6----6------------6-| 
E|---------------2----2-----------------4--------|
 
[Verse]
(0:14)
G|-------66---6--------------88---8---------------------------------|
D|-----------------44--4-----------------66--6----66--6----66-4-----|
A|-----4----4---------------6----6------------------------------6---|
E|---------------2----2----------------4----4---4----4---4----------|

G|----------------------66---6---------------88---8-----------------|
D|---66-4---66-4------------------44---4---------------66---6-------|
A|--------6------6----4----4---------------6----6-------------------|
E|-4----------------4-----------2----2---------------4----4---------|

G|----66---6----------------88---8------------|
D|--------------44--4------------------66-4---|
A|--4----4----------------6----6------------6-| 
E|------------2----2-----------------4--------|

G|-----66---6--------------88---8---------------------------------|
D|---------------44--4-----------------66--6----66--6----66-4-----|
A|---4----4---------------6----6------------------------------6---|
E|-------------2----2----------------4----4---4----4---4----------|

G|----------------------66---6---------------88---8-----------------|
D|---66-4---66-4------------------44---4---------------66---6-------|
A|--------6------6----4----4---------------6----6-------------------|
E|-4----------------4-----------2----2---------------4----4---------|

G|-----66---4--------------88---6------88---8------------------------|
D|---------------44--2---------------------------66---6----66---6----|
A|---4----4---------------6----6-----6----6--------------------------|
E|-------------2----2--------------------------4----4----4----4------|

G|----66--6----------------------------------88---8888--------------|
D|-------------66---6----44---4---44---4------------------66---6----|
A|--4---4----------------------------------6----6-------------------|
E|-----------4----4----2----2----2---2------------------4----4------|

[Chorus]
(1:11)
G|-----------------66--6-------------------66-4---|
D|-------66--6-----------------44--4------------6-|
A|---------------4----4------------------4--------|
E|-----4----4----------------2----2---------------|

G|-----------------66--6-------------------66-4---|
D|-------66--6-----------------44--4------------6-|
A|---------------4----4------------------4--------|
E|-----4----4----------------2----2---------------|

G|-----------------66--6----------------------------------------------|
D|-------66--6-----------------44--4-------66---6----66---6---66-4----|
A|---------------4----4--------------------------------------------6--|
E|-----4----4----------------2----2------4----4----4----4---4---------|

G|-------------|
D|---44-2------|
A|--------4----|
E|-2-----------|

[Fill]
(1:33)
G|-------66---6----------------88---8------------|
D|-----------------44--4------------------66-4---|
A|-----4----4----------------6----6------------6-| 
E|---------------2----2-----------------4--------|

G|-------66---6----------------88---8------------|
D|-----------------44--4------------------66--6--|
A|-----4----4----------------6----6--------------| 
E|---------------2----2-----------------4----4---|

[Verse]
(1:43)
G|-----66---4--------------88---6------88---8------------------------|
D|---------------44--2---------------------------66---6----66---6----|
A|---4----4---------------6----6-----6----6--------------------------|
E|-------------2----2--------------------------4----4----4----4------|

G|----66--6----------------------------------88---8888--------------|
D|-------------66---6----44---4---44---4------------------66---6----|
A|--4---4----------------------------------6----6-------------------|
E|-----------4----4----2----2----2---2------------------4----4------|

[Chorus]
(2:05)
G|-----------------66--6-------------------66-4---|
D|-------66--6-----------------44--4------------6-|
A|---------------4----4------------------4--------|
E|-----4----4----------------2----2---------------|

G|-----------------66--6-------------------66-4---|
D|-------66--6-----------------44--4------------6-|
A|---------------4----4------------------4--------|
E|-----4----4----------------2----2---------------|

G|-----------------66--6----------------------------------------------|
D|-------66--6-----------------44--4-------66---6----66---6---66-4----|
A|---------------4----4--------------------------------------------6--|
E|-----4----4----------------2----2------4----4----4----4---4---------|

G|-------------|
D|---44-2------|
A|--------4----|
E|-2-----------|

[Fill] 
G|-------------|
D|---44-2------|
A|--------4----|
E|-2-----------|
 
[Fill]
(2:44)
G|------------------------------------|
D|---44-2---------44-2--------66-4----|
A|--------4------------4-----------4--|
E|-2------------2-----------4---------|

[Chorus]
(2:49)
G|-----------------66--6-------------------66-4---|
D|-------66--6-----------------44--4------------6-|
A|---------------4----4------------------4--------|
E|-----4----4----------------2----2---------------|

G|-----------------66--6-------------------66-4---|
D|-------66--6-----------------44--4------------6-|
A|---------------4----4------------------4--------|
E|-----4----4----------------2----2---------------|

G|-----------------66--6----------------------------------------------|
D|-------66--6-----------------44--4-------66---6----66---6---66-4----|
A|---------------4----4--------------------------------------------6--|
E|-----4----4----------------2----2------4----4----4----4---4---------|

G|-------------|
D|---44-2------|
A|--------4----|
E|-2-----------|

[Fill]
(3:10) 
G|-------66---6----------------88---8------------|
D|-----------------44--4------------------66--6--|
A|-----4----4----------------6----6--------------|  x2
E|---------------2----2-----------------4----4---| 

G|-------66---6----------------88---8------------|
D|-----------------44--4------------------66-4---|
A|-----4----4----------------6----6------------6-| 
E|---------------2----2-----------------4--------|

G|---------------------|
D|---66--4---44--2-----|
A|---------------------|
E|-4---4----2--2-------|

[Chorus]
(3:38)
G|-----------------66--6-------------------66-4---|
D|-------66--6-----------------44--4------------6-|
A|---------------4----4------------------4--------|
E|-----4----4----------------2----2---------------|

G|-----------------66--6-------------------66-4---|
D|-------66--6-----------------44--4------------6-|
A|---------------4----4------------------4--------|
E|-----4----4----------------2----2---------------|

G|-----------------66--6----------------------------------------------|
D|-------66--6-----------------44--4-------66---6----66---6---66-4----|
A|---------------4----4--------------------------------------------6--|
E|-----4----4----------------2----2------4----4----4----4---4---------|

G|-------------|
D|---44-2------|
A|--------4----|
E|-2-----------|

[Fill] x2
(4:00) 
G|-------66---6----------------88---8------------|
D|-----------------44--4------------------66-4---|
A|-----4----4----------------6----6------------6-| 
E|---------------2----2-----------------4--------|

G|-------66---6----------------88---8------------|
D|-----------------44--4------------------66--6--|
A|-----4----4----------------6----6--------------|  
E|---------------2----2-----------------4----4---| 

[Chorus]
(4:32)
G|-----------------66--6-------------------66-4---|
D|-------66--6-----------------44--4------------6-|
A|---------------4----4------------------4--------|
E|-----4----4----------------2----2---------------|

G|-----------------66--6-------------------66-4---|
D|-------66--6-----------------44--4------------6-|
A|---------------4----4------------------4--------|
E|-----4----4----------------2----2---------------|

G|-----------------66--6----------------------------------------------|
D|-------66--6-----------------44--4-------66---6----66---6---66-4----|
A|---------------4----4--------------------------------------------6--|
E|-----4----4----------------2----2------4----4----4----4---4---------|

G|-------------|
D|---44-2------|
A|--------4----|
E|-2-----------|

[Fill]
(4:53) 
G|-------66---6----------------88---8------------|
D|-----------------44--4------------------66--6--|
A|-----4----4----------------6----6--------------|  x2
E|---------------2----2-----------------4----4---| 

G|-------66---6----------------88---8------------|
D|-----------------44--4------------------66-4---|
A|-----4----4----------------6----6------------6-| 
E|---------------2----2-----------------4--------|
Suggest correction
comments
print report bad tab
5 comments total. Showing first comments.
0 reply
LiL_rocker808 20 May 28, 2005 12:00 AM

niec job, perfect for my band

0 reply
henryt-bags 90 Oct 05, 2005 08:48 PM

thanks a lot, the best version online.

0 reply
rookie_bassist 10 Feb 17, 2006 05:37 AM

thankz heaps, this is the only version i have ever found for a bass tab of this song.

you rock!!!

guest
You may want to rate the tab now too:
select rating
Wanna post a correction for this tab? Suggest correction