Oops, an error
Loading. Please wait.

Red Red Wine Chords

version 1
version 1

Whole song

Interactive

Video

by UB40
404,369 views 720 this week
17 commentsread comments
1 2 3 4 5
x 64
add to favorites
launch autoscroll
font size
0
reset
transpose
0
reset
display chords
guitar tuner
Autoscroll
slow
fast
+/-
esc
set tempo
stop
Help us to improve Ultimate-Guitar.com Take our survey!
×
Author
Capo
6th fret
---------------------------------------------------------------------------- 
                            "Red Red Wine" UB40
-----------------------------------------------------------------------------
Play it using upstrokes only and picking the 3th, 4th and 5th strings only in your guitar:

CAPO on the 6th Fret
Standart tuning eBGDAE  


[Hook]

             G C D
  Red red wine,
             G  C  D
  Go to my head,
                    G  C  D
  Make me forget that I
             G  C  D
  Still need her so,
              G  C  D
  Red red wine,
             G  C  D 
  It's up to you,
                G  C  D
  All I can do I've done,
                   G C D
  But memories won't go,
       D             C D   
  No, memories won't go..


[Bridge]

  G C D
             D
  I have sworn,
              G
  That with time,
              C                 G
  Thoughts of you would leave my head,
          D          G
  I was wrong and I find,
             C                 D
  Just one thing makes me forget...


[Hook]

          G C D  
  Red red wine,
                 G C D
  Stay close to me,
                  G C D
  Don't let me be alone,
                  G C D
  It's tearing apart
     D              C D
  My blue, blue heart.
 

[Bridge]

  G C D
            D
  I have sworn,
              G
  That with time,
              C                 G
  Thoughts of you would leave my head,
            D         G
  I was wrong and I find,
             C                D
  Just one thing makes me forget...


[Hook]

             G C D
  Red red wine,
                 G C D
  Stay close to me,
                G C D
  Don't let me be alone,
                G C D
  It's tearing apart
      D           C D  
  My blue, blue heart.

-----------------------------------------------------------------------------
  Peace I'm out, any corrections send them to me to steyraug249@hotmail.com
Suggest correction
comments
print report bad tab
17 comments total. Showing first comments.
0 reply
Metallicaman66 10 Jun 07, 2007 09:11 PM

Nice tab, i think its pretty good

0 reply
The4thHorsemen 352 Oct 18, 2007 05:30 PM

it took me a second to figure out what he was saying about the capo. but I don't have a capo, so I'm playin it by barring the sixth fret with my pointer finger and using my ring and pinky to fret the other notes like such:

"G" "C" "D"
e|-----------------------------------------
B|-----------------------------------------
G|6---6---8--------------------------------
D|6---8---6--------------------------------
A|8---9---6--------------------------------
E|-----------------------------------------

0 reply
The4thHorsemen 352 Oct 18, 2007 05:41 PM

scratch that last post, I found a better way. same notes, but easier.

"G" "C" "D"
e|-----------------------------------------
B|2---2---4--------------------------------
G|1---3---1--------------------------------
D|3---4---1--------------------------------
A|-----------------------------------------
E|-----------------------------------------

guest
You may want to rate the tab now too:
select rating
Wanna post a correction for this tab? Suggest correction