Oops, an error
Loading. Please wait.

Signing Off Bass Tab

by UB40
731 views 1 this week
no commentswrite comment
1 2 3 4 5
please rate
add to favorites
launch autoscroll
font size
0
reset
guitar tuner
Tab Pro tools
  • play this tab
  • loop segment
  • change instrument
  • show fretboard
  • metronome
×
Best way to learn
"Signing Off"
Autoscroll
slow
fast
+/-
esc
set tempo
stop
Contributor
Difficulty
advanced
Title-Signing Off(Instrumental)
Artist-UB40
Album-Signing Off
Tabbed by-mattydread2@yahoo.com

 main riff;this partx3
G|-------------------------------|
D|-----9999----9-----------------|
A|-7-77-------7-7-----7------9-9-|
E|---------------5---5-5-7-7-----|

 x1
G|---------------------------------|
D|----99999-9----9-----------------|
A|-7------------7-7-----7----------|
E|-----------------5---5-5-3-3-2-2-|
 repeat with variations until,


 before bass solo;
G|--------------------------------|
D|-----9-99----9------------------|
A|-7777----7-7-------7-77----9999-|
E|---------------5555----7-7------|

G|-------------------------------|
D|----99999----9-----------------|
A|-7-------7-7-----77777----9999-|
E|---------------5------7-7------|


 bass solo
G|-------7-9-7--------------------|
D|---9-9-------9------------------|
A|-7----------------777777---9999-|
E|----------------5-------7-7-----|

G|--------7-9-7----97-7--97-7----97--|
D|---9999-------9----9-----9-------9-|
A|-7---------------------------------|
E|-----------------------------------|

 return to main riff


 over percussion solo;
G|---------------------------|
D|---------------------------|
A|-------222-2-2-------------|
E|-0-0-0---------5-5-5--3--2-|

G|--------------------------|
D|--------------------------|
A|-------222-22-------------|
E|-0-0-0--------5-5-3-3-2-2-|

G|---------------------------|
D|---------------------------|
A|--------222-22-------------|
E|--0-0-0--------5-5-3-3-2-2-|

 return to main riff


 before/during guitar solo;
G|-------------------------|
D|-9----9------------------|
A|--777--777---7--77--9--9-|
E|--------------55-----7---|

G|------------------------------|
D|-9---999----------------------|
A|--777---777------7------------|
E|------------------555-3-3-2-2-|

 repeat thro solo with variations

 return to main riff and repeat thro'out
 with variations

end with this
G|---------------------------------|
D|--99999-9----9-------------------|
A|-7----------7-7-----7------------|
E|---------------5---5-5-3-3-2-2-0-|
comments
We did not receive enough feedback on this tab! Please rate:
print report bad tab
1 2 3 4 5
I want to post or [tab]
guest
You may want to rate the tab now too:
select rating
Please do not post tabs as comments. Select "correction" instead!