Oops, an error
Loading. Please wait.

Sing Our Own Song Bass Tab

by UB40
1,696 views 6 this week
no commentswrite comment
1 2 3 4 5
x 4
add to favorites
launch autoscroll
font size
0
reset
guitar tuner
Autoscroll
slow
fast
+/-
esc
set tempo
stop
Help us to improve Ultimate-Guitar.com Take our survey!
×
Author
Artist - UB40 
Title - Sing Our Own Song
Album - Rat in the Kitchen
Bass Tab
  
Tabbed by - mattydread2@yahoo.com
             
repeat riff thru out song 
 
G|-----------------------------|
D|---4444-----------22221------|
A|--4----4---------2------2-2--|
E|---------2-2-----------------|

G|-----------------------------|
D|---4444-----------22221------|
A|--4----4---------2------2-2--|
E|---------2-2-----------------|
Suggest correction
comments
print report bad tab
guest
You may want to rate the tab now too:
select rating
Wanna post a correction for this tab? Suggest correction