Oops, an error
Loading. Please wait.

Hollowpoint Sniper Hyperbole Tab

version 2
version 2

Whole song

727 views 1 this week
no commentswrite comment
1 2 3 4 5
please rate
add to favorites
launch autoscroll
font size
0
reset
how to read this tab
guitar tuner
Autoscroll
slow
fast
+/-
esc
set tempo
stop
Help us to improve Ultimate-Guitar.com Take our survey!
×
| /  slide up
| \  slide down
| h  hammer-on
| p  pull-off
| ~  vibrato
| +  harmonic
| x  Mute note


e|--4--    --0--    --2--    --2--|
B|--4--    --0--    --4--    --2--|
G|--4--    --1--    --4--    --3--|
D|--6--    --2--    --4--    --4--|
A|--6--    --2--    --2--    --4--|
E|--4--    --0--    --x--    --2--|
   Abm       E        B        F#


Verse 1 (Chords played with palm mute until the end of the verse):

Abm         E       B        F#
Thoughts seem, to stumble out of my mouth,
Abm      E       B         F#
I can't seem, to stop and talk to them,
Abm      E           B         F#
Fear tries, to pierce the armour of truth,
Abm   E       B        F#
Hollowpoint, sniper hyperbole....

Abm    E     B     F#  (These chords the rest of the way...)

Solo Part
starts at 2:11

E----------------------------------------------------------------|
B----------------------------------------------------------------|
G----------------------------------------------------------------|
D--6/8--9--9/11--13--6/8--9--9--9--9--8-9-8/6---6/8--9--9/11--13-|
A----------------------------------------------------------------|
E----------------------------------------------------------------|

Originally tabbed by: Pantz13,
solo added by me.
Really easy to play. Enjoy :)
Suggest correction
Give kudos to tab author, rate the tab!
1 2 3 4 5
comments
print report bad tab
guest
You may want to rate the tab now too:
select rating
Please do not post tabs as comments. Select "correction" instead!