Oops, an error
Loading. Please wait.

Yanapaway Yuksimuyta Tab

39 views 1 this week
no commentswrite comment
1 2 3 4 5
3 more votes to show rating
add to favorites
launch autoscroll
font size
0
reset
how to read this tab
guitar tuner
×
Best way to learn
"Yanapaway Yuksimuyta"
Autoscroll
slow
fast
+/-
esc
set tempo
stop
INTRO:

A# C D# F   X 8

|-6^6P6-3----------|-6---6------------|------------3-|
|--------6^6P6-4-6^|--6^6-6^6--6^6P4--|-------4--4-6^|
|------------------|----------------5-|---3P5-5-5----|
|------------------|------------------|3P5-----------|
|------------------|------------------|--------------|
|------------------|------------------|--------------|

PARTE CANTADA
         |--------------|------------------|---------------|------------------|---------------|------------------|
         |--------------|------------------|---------------|------------------|---------------|------------------|
         |--------------|------------------|---------------|------------------|---------------|------------------|
   A     |----1------1--|----1--5-3-1------|-5-3-1------1--|----1--5-3-1------|-5-3-1--5-3-1--|----1--5-3-1------|
         |-1-3-3--1-3-3-|-1-3-3------3-1P3-|------3--1-3-3-|-1-3-3------3-1P3-|------3------3-|-1-3-3------3-1p3-|
         |--------------|------------------|---------------|------------------|---------------|------------------|

                                                                     |---------------x2-----------------|

|-6^-8-6-3-6^^-8-6-3--6----|------------|-------|
|-------------------6^-6^6-|-6^6-4------|-4-6-4-|   repetir a
|--------------------------|------5-3-5-|-5---5-|
|--------------------------|------------|-------|
|--------------------------|------------|-------|

|--------------|     |------------------|
|---------------|     |---------3-------|     |
|---------------|  x2 |---------3-------|  x2 |   x2
|--------1------|     |-5-5-3-5---5-3-5-|     |
|-3-3-1-3-3-1-3-|     |-----------------|     |
|---------------|     |-----------------|

|-6^-8-6-3-6^-6^-|-8-6-3-6---|----------|-------|---------------|
|----------------|------6^6^-|-8p6-4-6^-|-------|7-6-4-6p4------|
|----------------|-----------|----------|-6^^^^-|---------5p3-5-| repetir   ...( A )
|----------------|-----------|----------|-------|---------------|
|----------------|-----------|----------|-------|---------------|
|----------------|-----------|----------|-------|---------------|

|-------------11^-11-|-8----------|-----------------|--------------|
|-11^-11^-11-8-------|--11-8-11^^-|-11^-11-8--------|--------------|
|--------------------|------------|---------10^-10^-|-10^-10-8-10^-|
|--------------------|------------|-----------------|--------------|
|--------------------|------------|-----------------|--------------|
|--------------------|------------|-----------------|--------------|

|-------|    |----------|
|-------|    |----------|
|-------|    |----------|
|-4-5-8-| x4 |----------| |
|-------|    |-8-6------| |   x2
|-------|    |----8-6-8-| |

|-11^-11-8----------|-8----------------------------------------------------------------------------------|
|---------11-11-11^-|--11-8-8----------------------------------------------------------------------------|
|-------------------|----------10-8-10---8--8------------------------------------------------------------|
|-------------------|---------------------10-----10-8-10---8------------------------------------------10-|
|-------------------|---------------------------------------8^---6p8-6p8-6p8-6p8---6-8--10-8--13-10-13---|
|-------------------|-------------------------------------------8-------8---------8----------------------|

-------------------------|----------------------|-------11^11-11^11-11^11-13-|
----------11---11--------|----------------------|----------------------------|   repetir ...( B )
-8--8-10^---10^--10^-10^-|-10^-10p8-10p8--------|10---8----------------------|
--10--10-----------------|--------------10p8-10-|---10-----------------------|
-------------------------|----------------------|----------------------------|
-------------------------|----------------------|----------------------------|


|----------------------|---------------------|
|-11^-11^11-8----------|---------------------|
|------------10^-10^...|-10^10p8-10p8--------|
|----------------------|-------------10p8-10-|
|----------------------|---------------------|
|----------------------|---------------------|

         |-------------------|
         |-------------------|
         |-------------------|
  ( B )  |-8p10-8------------|
         |-------10-8-6------|
         |-------------6-8-8-|


final
|---------------------|----------------|------------------------------|
|-11^-11^11-8-11^-11^-|-11^11-8--------|-11-----11-----11-----11------|
|---------------------|--------10^-10^-|---10^10--10^10--10^10--10^10-|
|---------------------|----------------|------------------------------|
|---------------------|----------------|------------------------------|
|---------------------|----------------|------------------------------|

---------------------|-----------------|----------------------------------|----------------------------|
---------------------|-----------------|-----------------11---------------|----------------------------|
-10^10p8-10p8--------|-------8----8-10^|-10^10-8-10^-10^---10^10-8-10p8---|----------------------------|
-------------10p8-10-|----8----10---10-|-------------------------------10-|-----------------8--8--8-10-|
---------------------|8p10-10----------|----------------------------------|--6p8-6-8p6--8p10-10-10-----|
---------------------|-----------------|----------------------------------|-8---------8----------------|


|-13^-13^11-8-11-13-15--8-8--------------8---------------------------------------|
|--------------------------11p8-11^-11^---11-8---8-------------------------------|
|---------------------------------------------10^---10^-10^-10-8-10p8-------8--8-|
|--------------------------------------------------------------------10p8-10-10--|
|--------------------------------------------------------------------------------|
|--------------------------------------------------------------------------------|

|---------------------------|------------|--------------------------------|--------|   |-------------|
|----8-8----8-8---8-8---8-8-|--11---11---|--------------------------------|11------|x2 |-------------|
|-10^----10^---10^---10^----|10^--10^-10-|-10^-10^10p8-10p8-------8--8p10-|--10^10-|   |10^10p8-10p8-|
|---------------------------|------------|-----------------10p8-10-10-----|--------|   |-------------|
|---------------------------|------------|--------------------------------|--------|
|---------------------------|------------|--------------------------------|--------|

repetir  ( B )
Suggest correction
Give kudos to tab author, rate the tab!
1 2 3 4 5
comments
print report bad tab
guest
You may want to rate the tab now too:
select rating
Wanna post a correction for this tab? Suggest correction