Oops, an error
Loading. Please wait.
We have an official Doctor Doctor tab made by UG professional guitarists. Check out the tab »
×
by UFO
28,812 views 51 this week
4 commentsread comments
1 2 3 4 5
x 10
add to favorites
×
Save as Personal and add changes to this tab that will be seen only by you. Learn more ›
×
You can save this tab as Personal to edit and correct it or add notes. All changes will be seen only by you. Learn more »
launch autoscroll
font size
0
reset
guitar tuner
backing track
0:00
0:00
edit
Autoscroll
slow
fast
+/-
esc
set tempo
stop
Author
c_rejects@hotmail.com 
Tabbed By: me


Band:                    UFO
Album:                   The Best Of UFO
Songtitle:               Doctor Doctor
Year:                    1979    
Tuning:                  Standard
Tempo:                   120 bpm approx



Hello hello..

It's amazing that the worldwide-well-known Ultimate-Guitar site has no tab
for this great song.. Well, at least someone tabbed it;-)

Listen to the song for right timing and though..
 
Intro: Just chill and wait for the guitar solo to fade in..
G|---------|--------|---------|-------|-----------|--------|------|
D|---------|-7------|-5-------|-------|-----7-----|-5------|------|
A|---0--5--|---7----|---5--0--|-0---5-|--0----7---|---5--0-|-0--5-|
E|---------|-----6--|---------|-------|---------6-|--------|------|

G|-------|--------|------|----------|-----------|------|
D|-7-----|-5------|------|----7-----|---5--3----|------|
A|---7---|---8--0-|-0--5-|-0----7---|---------0-|-0--5-|
E|-----6-|--------|------|--------6-|-6---------|------|

0:27
G|----------------|--------|-----------|
D|----------------|--------|-----------|
A|-5-------3------|-5------|-----------|
E|-----6--------5-|-----6--|-5---3---5-|


Main Riff:
G|----------------------------------|
D|----------------------------------|
A|--5555555----------------3333333--|
E|----------6666666-1111111---------|

G|----------------------------------|    
D|----------------------------------|  
A|--5555555-------------------------|
E|----------6666666-1111111-333-555-|    

1st. Verse: 
G|----------------------------------|    
D|----------------------------------|    
A|--5555555-----------------3333333-|  
E|----------6666666-1111111---------|   
(Doctor Doctor please..)                  

G|----------------------------------|
D|----------------------------------|
A|--5555555-------------------------|
E|----------6666666-1111111-5555555-|

G|----------------------------------|
D|----------------------------------|
A|--5555555-----------------3333333-|
E|----------6666666-1111111---------|

G|----------------------------------|    
D|----------------------------------|  
A|--5555555-------------------------|
E|----------6666666-1111111-333-555-|
 
Chorus: 
G|------------------------|---------|-----------------------|------------|
D|------------------------|---------|-----------------------|------------|
A|--55-----33-------------|-5555555-|--55-----33------------|-555555555--|
E|-----66-----11---33--55-|---------|-----66-----11--33--55-|------------|
(Livin' Lovin'..)

Main Riff:
G|----------------------------------|    |-------------|
D|----------------------------------|    |-------------|
A|--5555555----------------3333333--| x2 |-------------|
E|----------6666666-1111111---------|    |--333--555---|

2nd. Verse:
G|----------------------------------|    |----------------------------22222-|
D|----------------------------------|    |----------------------------------|
A|--5555555----------------3333333--| x3 |--555555---------------00000------|
E|----------6666666-1111111---------|    |---------666666-1111111-----------|
(Doctor Doctor please..)                   

Chorus: 
G|-----------------------|--------|
D|-----------------------|--------|
A|--55-----33------------|-555555-| x2
E|-----66-----11--33--55-|--------| 

-Main Riff-

-3rd. Verse- Just like 1st. Verse-

---After this, keep fading out with the Main Riff..---


Good luck;-)



===============================================================================

            
            
Suggest correction
Creating personal tab
Creating personal tab
You can edit any tab online and save it as your Personal.

You can edit, replace or remove any tab part or add personal notes – all changes will be seen only by you.

Personal tabs can be accessed anytime from any device, even offline.
Learn more »
comments
print report bad tab
4 comments total. Showing first comments.
0 reply
r_lightning 270 Sep 10, 2004 08:00 PM

lol.. the tab came in a little late.. ^_^

0 reply
scratch 10 Sep 13, 2004 08:00 PM

no problem! very great tabbed! I think its correct;-) Much better than the other one, rock on dude

0 reply
xxxxChrisTxxxx [tm] 10,236 Sep 16, 2012 01:46 AM

Very good tab.
Last part of main riff alternates through the verses though...
1st - A-333333
2nd - E-333-555
3rd - A-333333
4th - E-555555
5th - A-333333
6th - E-333-555

guest
You may want to rate the tab now too:
select rating
Wanna post a correction for this tab? Suggest correction