Oops, an error
Loading. Please wait.

Highway Lady Tab

by UFO
1,505 views 6 this week
no commentswrite comment
1 2 3 4 5
accurate
x 3
add to favorites
launch autoscroll
font size
0
reset
how to read this tab
guitar tuner
Autoscroll
slow
fast
+/-
esc
set tempo
stop
Help us to improve Ultimate-Guitar.com Take our survey!
×
Highway Lady by UFO
From the album No Heavy Petting

Transcribed by Rob Watson robert.watson14@btinternet.com

|A5  |D5  G5  E5|  x  4
|A5 | x 4

A5
Run down, low down, don't feel tired
Take no orders, don't get fired
  D5         F5        A5
I waste away cruisin' along

 
Fighting blizzards, ragin' storms
Hold the wheel tight know I'm born 
D5           F5        A5
to ramble on Cruisin' along
      G 
But I stop, turn my head around
E5            A               F
  Sleep until tomorrow, in my arms
      G
In my arms,
A            G D D slide E   A                  G  D   D slide E
Highway lady, lowayla?        dream the big top up above
D             E                 F#m            B5
Highway lady, high on her heels make you smile forget
        E(bass E D C# B E)  
How she feels

|A5  |D5  G5  E5|  x  2
|A5 | x 4

Found my way to Spanish stairs
Small corruption, no one cares I've tasted life
Cruisin' along

  
Solo

            A                                             D

E|---------|--------------|-------|-----------|----------|-----------|
B|--7b8-7b8|7b8----7b8-7b8|----r7-|5-4--------|----------|-----------|
G|---------|--------------|-------|----7-4b5r4|-------2-4|4b5r4-2---2|
D|---------|--------------|-------|-----------|7vib-4----|--------4--|
A|---------|--------------|-------|-----------|----------|-----------|
E|---------|--------------|-------|-----------|----------|-----------|

  F                 A

E|-----------------|-----------------|----------------------|
B|--2h3p2----------|2-3-5-3-2-3p2----|----------------------|
G|4-------4-2---2-4|--------------4-2|--4b6r4p2---2----16b18|
D|------------3----|-----------------|4---------4-----------|
A|-----------------|-----------------|----------------------|
E|-----------------|-----------------|----------------------|

E|-----------------------------------------------------|
B|14-14-17p14-19p14-------14-17p14-19p14-------14-17p14|
G|------------------16b18----------------16b18---------|
D|-----------------------------------------------------|
A|-----------------------------------------------------|
E|-----------------------------------------------------|

E|---------------------17p14----14------------------|
B|19p14-------14-17p14-------17----17-14-15p14------|
G|------16b18----------------------------------16-14|
D|--------------------------------------------------|
A|--------------------------------------------------|
E|--------------------------------------------------|


E|--------------------------------------|---------------------------|
B|--------------------------------------|-------------------------14|
G|16p14----14---------------------------|-------------------14-16---|
D|------16----16p14----14-12h14p12-11---|11-------11--14s16---------|
A|------------------17----------------14|---12-14-------------------|
E|--------------------------------------|---------------------------|

  D                 F                             A

E|-----------------|-----------------------------|--------------------|-------17----|
B|15-14------------|---14-15-17-15-14h15p14------|17-15-17------------|-17b19----r17|
G|------16-14----14|16----------------------16-14|---------16b17r16-14|-------------|
D|------------16---|-----------------------------|--------------------|-------------|
A|-----------------|-----------------------------|--------------------|-------------|
E|-----------------|-----------------------------|--------------------|-------------|
Suggest correction
What's this?
You can suggest a correction to this tab. Community and Mods will review your correction and vote to approve or reject it.
comments
We did not receive enough feedback on this tab! Please rate:
print report bad tab
1 2 3 4 5
guest
You may want to rate the tab now too:
select rating
Please do not post tabs as comments. Select "correction" instead!