Oops, an error
Loading. Please wait.

Im A Loser Live bass

by UFO
173 views 1 this week
no commentswrite comment
1 2 3 4 5
1 last vote to show rating
add to favorites
×
Save as Personal and add changes to this tab that will be seen only by you. Learn more ›
×
You can save this tab as Personal to edit and correct it or add notes. All changes will be seen only by you. Learn more »
launch autoscroll
font size
0
reset
guitar tuner
edit
Autoscroll
slow
fast
+/-
esc
set tempo
stop
Author
Difficulty
-------------------------------------------------------------------------------
                             I’m A Loser Live - UFO
-------------------------------------------------------------------------------
Tabbed by: David Etheridge
E-mail: david_l_etheridge@yahoo.com

This is the live version from “Strangers In The Night” album

Tuning: Standard

Bass comes in 5th measure

Intro X2   Verse1 X4         Refrain
G||----------------------|| ||-------------------------------------------||
D||----------------------|| ||-------------------------------------------||
A||12\----------------12\|| ||9--9-7--7-5--5---5---7--9--9-7--7-5--5-5--4||
E||---5---5--5/10--10----|| ||-------------------------------------------||

Pre Chorus
G||---------------------------------||
D||4-2------0-------4-2-----0-------||
A||-----------4-2-------------4-2--4||
E||---------------------------------||

Chorus Pt.1  X2         Pt.2    X2
G||--------|--------|| ||------------------|-----------------||
D||--------|--------|| ||------------------|-----------------||
A||--7-5---|--7-5--7|| ||--7--7-5---5-5-5-5|---7--7-5--5-5-7-||
E||5-------|5-------|| ||5-5---------------|5-5--------------||

G|------------------|-----------------|------------------|-----------------||
D|------------------|-----------------|------------------|-----------------||
A|---7--7-5--5-5-5-5|---7--7-5--5-5-7-|--7--7-5---5-5-5-5|---7--7-5--5-5-7-||
E|5-5---------------|5-5--------------|5-5---------------|5-5--------------||  

Intro X2   Verse2       X4         Refrain
G||----------------------|| ||-------------------------------------------||
D||----------------------|| ||-------------------------------------------||
A||12\----------------12\|| ||9--9-7--7-5--5---5---7--9--9-7--7-5--5-5--4||
E||---5---5--5/10--10----|| ||-------------------------------------------||

Chorus Pt.1  X2         Pt.2    X2
G||--------|--------|| ||------------------|-----------------||
D||--------|--------|| ||------------------|-----------------||
A||--7-5---|--7-5--7|| ||--7--7-5---5-5-5-5|---7--7-5--5-5-7-||
E||5-------|5-------|| ||5-5---------------|5-5--------------||

Solo X3                                    1 measure           Solo over Pre Chorus X2
G||--------------------------|| ||---------------|| ||---------------------------------||
D||---11------13-------------|| ||---------------|| ||4-2------0-------4-2-----0-------||
A||9-9—9/11-11-11----7-----9-|| ||---------------|| ||-----------4-2-------------4-2--4||
E||---------------5-5-5/7-7-7|| ||9-9-9-9-9-9-9-9|| ||---------------------------------||

Chorus Pt.2 with Solo X2
G|------------------|-----------------|------------------|-----------------||
D|------------------|-----------------|------------------|-----------------||
A|---7--7-5--5-5-5-5|---7--7-5--5-5-7-|--7--7-5---5-5-5-5|---7--7-5--5-5-7-||
E|5-5---------------|5-5--------------|5-5---------------|5-5--------------||  

Break
G||---------|---------|---------|---------||
D||---------|---------|---------|---------||
A||------5-7|------5-7|------5-7|------5-7||    
E||5--------|---------|5--------|---------||

Chorus Pt.2 with Solo
G|------------------|-----------------|------------------|-----------------||
D|------------------|-----------------|------------------|-----------------||
A|---7--7-5--5-5-5-5|---7--7-5--5-5-7-|--7--7-5---5-5-5-5|---7--7-5--5-5-7-||
E|5-5---------------|5-5--------------|5-5---------------|5-5--------------||  

Ending
G||---------|---------|---------||
D||---------|---------|---------||
A||------5-7|-----8-10|12-------||
E||5--------|---------|---------||



| /  slide up
| \  slide down
| h  hammer-on
| p  pull-off
| ~  vibrato
| +  harmonic
| x  Mute note
===============================================================================

Suggest correction
Creating personal tab
Creating personal tab
You can edit any tab online and save it as your Personal.

You can edit, replace or remove any tab part or add personal notes – all changes will be seen only by you.

Personal tabs can be accessed anytime from any device, even offline.
Learn more »
Give kudos to tab author, rate the tab!
1 2 3 4 5
comments
print report bad tab
guest
You may want to rate the tab now too:
select rating
Wanna post a correction for this tab? Suggest correction