Oops, an error
Loading. Please wait.

Lights Out Live bass

version 1
version 1

Whole song

Interactive

by UFO
624 views 1 this week
no commentswrite comment
1 2 3 4 5
3 more votes to show rating
add to favorites
×
Save as Personal and add changes to this tab that will be seen only by you. Learn more ›
×
You can save this tab as Personal to edit and correct it or add notes. All changes will be seen only by you. Learn more »
launch autoscroll
font size
0
reset
guitar tuner
backing track
0:00
0:00
edit
Autoscroll
slow
fast
+/-
esc
set tempo
stop
Author
Difficulty
-------------------------------------------------------------------------------
                             LIGHTS OUT – UFO
-------------------------------------------------------------------------------
Bass Tabbed by: David Etheridge
E-mail: david_l_etheridge@yahoo.com

This is the live version from “Strangers In The Night” album

The "." above a note mark the triplets that I play. I don’t know if "." is a real notation mark,
I was just trying to shorten the page a bit. This is my first tab so it’s probably not perfect, but
it should get you close.

Tuning: Standard

  Intro X8      Verse 1 X8    Fill between verses
G||---------|| ||---------|| ||--------|-------------|---------|---------||
D||---------|| ||---------|| ||--------|-------------|---------|---------||
A||---------|| ||---------|| ||.-.-.-.-|--.--.--.----|---------|---------||
E||2-202-020|| ||2-202-020|| ||0-0-0-0-|/12-12-12-12\|2-202-020|2-202-020||

  Verse 2 X8    Fill to chorus
G||---------|| ||--------|--------|---------|---------||
D||---------|| ||--------|--------|---------|---------||
A||---------|| ||.-.-.-.-|.-.-.-.-|---------|---------||
E||2-202-020|| ||0-0-0-0-|0-0-0-0-|2-202-020|2-202-020||
                                                                   
  Chorus  
G||--------|--------|--------|--------|--------|----------|--------|--------|--------|
D||--------|--------|--------|--------|--------|----------|--------|--------|--------|
A||.-.-.-.-|.-.-.-7-|.-.-.-.-|.-.-.-.-|.-.-.-.-|.-.-.-----|.-.-.-.-|.-.-.-.-|.-.-.-.-|
E||5-5-5-5—|5-5-5--—|7-7-7-7-|7-7-7-5-|3-3-3-3-|3-3-3-567-|7-7-7-7-|7-7-7-7-|5-5-5-5—|

G|--------|--------|--------|--------|--------|---------|---------|---------|---------||
D|--------|--------|--------|--------|--------|---------|---------|---------|---------||
A|.-.-.-7-|.-.-.-.-|.-.-.-.-|.-.-.-.-|.-.-.-.-|---------|---------|---------|---------||
E|5-5-5--—|7-7-7-7-|7-7-7-5-|3-3-3-3-|3-3-3-3-|2-202-020|2-202-020|2-202-020|2-202-020||  

  Verse 3 X8    Fill to chorus
G||---------|| ||--------|-------------|---------|---------||
D||---------|| ||--------|-------------|---------|---------||
A||---------|| ||.-.-.-.-|--.--.--.----|---------|---------||
E||2-202-020|| ||0-0-0-0-|/12-12-12-12\|2-202-020|2-202-020||

Chorus

  Solo X16       Solo continued
G||---------|| ||--------|-------|--------|-------|--------|-------|--------|----------||
D||---------|| ||--------|-------|--------|-------|--------|-------|--------|----------||
A||---------|| ||.-.-.-.-|.-.-.-9|.-.-.-.-|.-.-.--|.-.-.-.-|.-.-.-9|.-.-.-.-|.-.-.-.-.-||
E||2-202-020|| ||9-9-9-9-|9-9-9--|9-9-9-9-|9-9-9-7|9-9-9-9-|9-9-9--|9-9-9-9-|9-9-9-7-5-||

Chorus

  Verse 4 X8    Fill to chorus
G||---------|| ||--------|-------------|---------|---------||
D||---------|| ||--------|-------------|---------|---------||
A||---------|| ||.-.-.-.-|--.--.--.----|---------|---------||
E||2-202-020|| ||0-0-0-0-|/12-12-12-12\|2-202-020|2-202-020||

Chorus

  Outro X3          
G||--------|-------|--------|-------|--------|-------|--------|----------|
D||--------|-------|--------|-------|--------|-------|--------|----------|
A||.-.-.-.-|.-.-.-9|.-.-.-.-|.-.-.--|.-.-.-.-|.-.-.-9|.-.-.-.-|.-.-.-.-.-|
E||9-9-9-9-|9-9-9--|9-9-9-9-|9-9-9-7|9-9-9-9-|9-9-9--|9-9-9-9-|9-9-9-7-5-|

                               End 1 & 2    End 3
G|--------|-------|--------|| ||--------|| ||---------||
D|--------|-------|--------|| ||--------|| ||---------||
A|.-.-.-.-|.-.-.-7|.-.-.-.-|| ||.-.-.-.-|| ||.-.-.--9-||
E|5-5-5-5—|5-5-5-—|7-7-7-7-|| ||7-7-7-7-|| ||7-7-7-7-9||


| .  triplet
| /  slide up
| \  slide down
| h  hammer-on
| p  pull-off
| ~  vibrato
| +  harmonic
| x  Mute note
===============================================================================

            
            
Suggest correction
Creating personal tab
Creating personal tab
You can edit any tab online and save it as your Personal.

You can edit, replace or remove any tab part or add personal notes – all changes will be seen only by you.

Personal tabs can be accessed anytime from any device, even offline.
Learn more »
Give kudos to tab author, rate the tab!
1 2 3 4 5
comments
print report bad tab
guest
You may want to rate the tab now too:
select rating
Wanna post a correction for this tab? Suggest correction