Oops, an error
Loading. Please wait.

Makin Moves Bass Tab

by UFO
336 views 1 this week
no commentswrite comment
1 2 3 4 5
please rate
add to favorites
launch autoscroll
font size
0
reset
guitar tuner
Tab Pro tools
  • play this tab
  • loop segment
  • change instrument
  • show fretboard
  • metronome
×
Best way to learn
"Makin Moves"
Autoscroll
slow
fast
+/-
esc
set tempo
stop
Contributor
Makin' Moves by UFO
Standard Tuning

(Intro)
G:----------|----------|----------|----------|
D:----------|2---3-----|----------|----------|  x2
A:---4 /5---|---------1|---1--0---|----------|
E:----------|----------|----------|---3--1---|

G:----------|----------|----------|----------|
D:----------|----------|----------|----------|  x3
A:----------|----------|----------|----------|
E:3--3--3--3|3--3--3--3|3--3--3--3|3--3--3--3|

G:----------|----------|----------|----------|
D:----------|----------|----------|----------|
A:----------|----------|----------|-----1---2|
E:3--3--3--3|3--3--3--3|3--3--3--3|3---------|

G:----------|----------|----------|----------|
D:----------|----------|----------|----------|
A:3--3--3--3|3--3--3--3|3--3--3--3|3--3--3--3|
E:----------|----------|----------|----------|

G:----------|----------|----------|----------|
D:----------|----------|----------|----------|
A:3--3--3--3|3--3--3--3|3--3--3--3|-----0---1|
E:----------|----------|----------|1---------|

G:----------|----------|----------|----------|
D:----------|----------|----------|----------| 
A:----------|----------|----------|----------|
E:3--3--3--3|3--3--3--3|3--3--3--3|3--3--3--3|

G:----------|----------|----------|----------|
D:----------|----------|----------|----------|_
A:----------|----------|----------|-----1---2| |
E:3--3--3--3|3--3--3--3|3--3--3--3|3---------| |
                                               |__x3
G:----------|----------|----------|----------| |
D:----------|----------|----------|----------| |
A:---5--5---|5----3---3|3----1---1|----------|_|
E:----------|----------|----------|1--1--1--3|

G:----------|----------|----------|----------|
D:----------|----------|----------|----------|  x3
A:----------|----------|----------|----------|
E:3--3--3--3|3--3--3--3|3--3--3--3|3--3--3--3|

G:----------|----------|----------|----------|
D:----------|----------|----------|----------|
A:----------|----------|----------|-----1---2|
E:3--3--3--3|3--3--3--3|3--3--3--3|3---------|

G:----------|----------|----------|----------|
D:----------|----------|----------|----------|
A:3--3--3--3|3--3--3--3|3--3--3--3|3--3--3--3|
E:----------|----------|----------|----------|

G:----------|----------|----------|----------|
D:----------|----------|----------|----------|
A:3--3--3--3|3--3--3--3|3--3--3--3|-----0---1|
E:----------|----------|----------|1---------|

G:----------|----------|----------|----------|
D:----------|----------|----------|----------| 
A:----------|----------|----------|----------|
E:3--3--3--3|3--3--3--3|3--3--3--3|3--3--3--3|

G:----------|----------|----------|----------|
D:----------|----------|----------|----------|_
A:----------|----------|----------|-----1---2| |
E:3--3--3--3|3--3--3--3|3--3--3--3|3---------| |
                                               |__x2
G:----------|----------|----------|----------| |
D:----------|----------|----------|----------| |
A:---5--5---|5----3---3|3----1---1|----------|_|
E:----------|----------|----------|1--1--1--3|

G:----------|----------|----------|----------|
D:----------|----------|----------|----------|  x2
A:3--3--3--3|3--3--3--3|3--3--3--3|3--3--3--3|
E:----------|----------|----------|----------|

G:----------|----------|----------|----------|
D:----------|2---3-----|----------|----------|
A:---4 /5---|---------1|---1--0---|----------|
E:----------|----------|----------|---3--1---|

G:----------|----------|----------|----------|
D:----------|----------|----------|----------|  x3
A:----------|----------|----------|----------|
E:3--3--3--3|3--3--3--3|3--3--3--3|3--3--3--3|

G:----------|----------|----------|----------|
D:----------|----------|----------|----------|
A:----------|----------|----------|-----1---2|
E:3--3--3--3|3--3--3--3|3--3--3--3|3---------|

G:----------|----------|----------|----------|
D:----------|----------|----------|----------|
A:3--3--3--3|3--3--3--3|3--3--3--3|3--3--3--3|
E:----------|----------|----------|----------|

G:----------|----------|----------|----------|
D:----------|----------|----------|----------|
A:3--3--3--3|3--3--3--3|3--3--3--3|-----0---1|
E:----------|----------|----------|1---------|

G:----------|----------|----------|----------|
D:----------|----------|----------|----------|
A:----------|----------|----------|----------|
E:3--3--3--3|3--3--3--3|3--3--3--3|3--3--3--3|

G:----------|----------|----------|----------|
D:----------|----------|----------|----------|
A:----------|----------|----------|-----1---2|
E:3--3--3--3|3--3--3--3|3--3--3--3|3---------|

G:----------|----------|----------|----------|
D:----------|----------|----------|----------|  x2
A:5--5--5--5|5--5--5--5|5--5--5--5|5--5--5--5|
E:----------|----------|----------|----------|

G:----------|----------|----------|----------|
D:----------|----------|----------|----------|
A:----------|----------|----------|----------|
E:6--6--6--6|6--6--6--6|5--5--5--5|5--5--5--5|

G:----------|----------|----------|----------|
D:----------|----------|----------|----------|
A:----------|----------|----------|----------|
E:3--3--3--3|3--3--3--3|1--1--1--1|1--1--1--1|

G:----------|----------|----------|----------|
D:----------|----------|----------|----------|
A:5--5--5--5|5--5--5--3|----------|----------|
E:----------|----------|----------|----------|

G:----------|----------|----------|----------|
D:----------|----------|----------|----------|
A:----------|----------|----------|----------|
E:3--3--3--3|3--3--3--3|3--3--3--3|3--3--3--3|

G:----------|----------|----------|----------|
D:----------|----------|----------|----------|
A:----------|----------|----------|-----1---2|
E:3--3--3--3|3--3--3--3|3--3--3--3|3---------|

G:----------|----------|----------|----------|
D:----------|----------|----------|----------|_
A:3--3--3--3|3--3--3--3|3--3--3--3|-----0---1| |
E:----------|----------|----------|1---------| |
                                               |__x10 (the song then
G:----------|----------|----------|----------| |         fades out)
D:----------|----------|----------|----------| |
A:---5--5---|5----3---3|3----1---1|----------|_|
E:----------|----------|----------|1--1--1--3|

Thanks, please rate it after you learn it.
Tabbed by:
_TheBassist01_
comments
We did not receive enough feedback on this tab! Please rate:
print report bad tab
1 2 3 4 5
I want to post or [tab]
guest
You may want to rate the tab now too:
select rating
Please do not post tabs as comments. Select "correction" instead!