Oops, an error
Loading. Please wait.

Oh My Tab

version 1
version 1

Whole song

Interactive

by UFO
73 views 6 this week
no commentswrite comment
1 2 3 4 5
3 more votes to show rating
add to favorites
launch autoscroll
font size
0
reset
how to read this tab
guitar tuner
Autoscroll
slow
fast
+/-
esc
set tempo
stop
Help us to improve Ultimate-Guitar.com Take our survey!
×
Author
Difficulty
intermediate
------------------------------------------------------------------------------
                                   Oh My -UFO
                                Phenomenon-1974
              Words and Music by Schenker,Way, Moog and Parker
------------------------------------------------------------------------------
Tabbed by: Duane Baldwin
E-mail: duaneandjulie@gmail.com

Tuning: Standard

Guitar I (Over driven)

Intro

    q   e  e  e  e  e   ete    e  e   e  e  e   e   ete   e   e  e  e  e   e   ete     
e|-----------------------7--|-----------------------7--|-----------------------7--|
B|-----------------------7--|-----------------------7--|-----------------------7--|
G|-----------------------7--|-----------------------7--|-----------------------7--|
D|--9--11--9--9--9--11---9--|--9--11--9--9--9--11---9--|--9--11--9--9--9--11---9--|
A|--7--7---7--7--7--7-------|--7--7---7--7--7--7-------|--7--7---7--7--7--7-------|
E|--------------------------|--------------------------|--------------------------|


1st Verse

    q   e  e  e  e  e   ete    e  e   e  e  e  e  e     e   e  e  e  e   e   ete     
e|-------------------------|-------------------------|-----------------------7--|
B|-------------------------|-------------------------|-----------------------7--|
G|-------------------------|-------------------------|-----------------------7--|
D|--9--11--9--9--9--11--9--|--9--11--9--9--9--11--9--|--9--11--9--9--9--11---9--|
A|--7--7---7--7--7--7---7--|--7--7---7--7--7--7---7--|--7--7---7--7--7--7-------|
E|-------------------------|-------------------------|--------------------------|


     e  e   e  e  e  e  e     e   e  e  e  e   e   ete
e|-------------------------|-----------------------7--|
B|-------------------------|-----------------------7--|
G|-------------------------|-----------------------7--|
D|--9--11--9--9--9--11--9--|--9--11--9--9--9--11---9--|
A|--7--7---7--7--7--7---7--|--7--7---7--7--7--7-------|
E|-------------------------|--------------------------|


     e  e   e  e  e  e  e     e   e  e  e  e   e   ete
e|-------------------------|-----------------------7--|
B|-------------------------|-----------------------7--|
G|-------------------------|-----------------------7--|
D|--9--11--9--9--9--11--9--|--9--11--9--9--9--11---9--|
A|--7--7---7--7--7--7---7--|--7--7---7--7--7--7-------|
E|-------------------------|--------------------------|


    q   e  e  e  e  e   ete    e  e   e  e  e  e  e     
e|-------------------------|-------------------------|
B|-------------------------|-------------------------|
G|-------------------------|-------------------------|
D|--9--11--9--9--9--11--9--|--9--11--9--9--9--11--9--|
A|--7--7---7--7--7--7---7--|--7--7---7--7--7--7---7--|
E|-------------------------|-------------------------|


1st Chorus

   .q  .q    q      .q   .q   q
e|---------------|---------------|
B|---------------|---------------|
G|--5------------|--5----7----9--|
D|--5---5----5---|--5----7----9--|
A|--7---5----5---|--3----5----7--|
E|------3----3---|---------------|


     e     s     s     s     s     s     s     s    s  s    s    s  s    s
e|--10b--10pb--10pb--10pb--10pb--10pb--10pb--10pbr--9--7--10p7------7--------|
B|--------------------------------------------------------------10-----10br--|
G|---------------------------------------------------------------------------|
D|---------------------------------------------------------------------------|
A|---------------------------------------------------------------------------|
E|---------------------------------------------------------------------------|

                    [ 3 ]   [ 3 ]
    s   s  e  s  s  s s  s  s s  s  s  s  q
e|-------------------------------------------|
B|--8--10--8---------------------------------|
G|------------9--7--9p7-----9p7-----7--------|
D|-----------------------9-------9-----9--7--|
A|-------------------------------------------|
E|-------------------------------------------|

  .q  .q    q      .q    q   e   q
e|---------------|------------------|
B|---------------|------------------|
G|--5------------|--5----7--7----9--|
D|--5---5----5---|--5----7--7----9--|
A|--7---5----5---|--3----5--5----7--|
E|------3----3---|------------------|


                                        [ 3 ]
     s   e     e  s  s  s  s  s  s  .e  s s  s     s  s  s  s  s  .e  s  s  e  q
e|--12------------------------------------------|----------------------------------|
B|------10pbr--8-----------8-----10--8----------|----------------------------------|
G|----------------9--7--9-----9---------9p7-----|--9--7----------------------------|
D|-------------------------------------------9--|--------9--8--7------9------------|
A|----------------------------------------------|-----------------10-----10--7--7--|
E|----------------------------------------------|----------------------------------|


2nd Verse


     e  e   e  e  e  e  e     e   e  e  e  e   e   ete
e|-------------------------|-----------------------7--|
B|-------------------------|-----------------------7--|
G|-------------------------|-----------------------7--|
D|--9--11--9--9--9--11--9--|--9--11--9--9--9--11---9--|
A|--7--7---7--7--7--7---7--|--7--7---7--7--7--7-------|
E|-------------------------|--------------------------|


     e  e   e  e  e  e  e     e   e  e  e  e   e   ete
e|-------------------------|-----------------------7--|
B|-------------------------|-----------------------7--|
G|-------------------------|-----------------------7--|
D|--9--11--9--9--9--11--9--|--9--11--9--9--9--11---9--|
A|--7--7---7--7--7--7---7--|--7--7---7--7--7--7-------|
E|-------------------------|--------------------------|


     e  e   e  e  e  e  e     e   e  e  e  e   e   ete
e|-------------------------|-----------------------7--|
B|-------------------------|-----------------------7--|
G|-------------------------|-----------------------7--|
D|--9--11--9--9--9--11--9--|--9--11--9--9--9--11---9--|
A|--7--7---7--7--7--7---7--|--7--7---7--7--7--7-------|
E|-------------------------|--------------------------|


    q   e  e  e  e  e   ete    e  e   e  e  e  e  e     
e|-------------------------|-------------------------|
B|-------------------------|-------------------------|
G|-------------------------|-------------------------|
D|--9--11--9--9--9--11--9--|--9--11--9--9--9--11--9--|
A|--7--7---7--7--7--7---7--|--7--7---7--7--7--7---7--|
E|-------------------------|-------------------------|



2nd Chorus


  .q  .q    q      .q    q   e   q
e|---------------|------------------|
B|---------------|------------------|
G|--5------------|--5----7--7----9--|
D|--5---5----5---|--5----7--7----9--|
A|--7---5----5---|--3----5--5----7--|
E|------3----3---|------------------|

                                        
    sr  s   s   s   e  sr  s   s  s    e  q       s  s   s   s   s   s   s   s  s   s   s    s   e
e|-----------------14-----------------14--14--|--14p12------12--------------------------------------|
B|-----12--14--12---------12--14--12----------|---------14------15--14--12------12------14----------|
G|--------------------------------------------|-----------------------------14------12------12------|
D|--------------------------------------------|-------------------------------------------------14--|
A|--------------------------------------------|-----------------------------------------------------|
E|--------------------------------------------|-----------------------------------------------------|


  .q  .q    q      .q    q   e    q
e|---------------|--------------------|
B|---------------|--------------------|
G|--5------------|--5----7--7----14b--|
D|--5---5----5---|--5----7--7---------|
A|--7---5----5---|--3----5--5---------|
E|------3----3---|--------------------|

 
Main Solo

     s   s   s   s   s   s  s   s   s   s   s   s   s   s   s   s
e|--12--------------------------------------------------------------|
B|------15--14--12--------------------------------------------------|
G|------------------15--14--12------14------12----------------------|
D|------------------------------14------14------14--12------14--12--|
A|------------------------------------------------------14----------|
E|------------------------------------------------------------------|


     s   s   s  s   s   s    s   h      q     e    e   s    .e      e  etq         
e|----------------------------------|---------------------------------------|
B|----------------------------------|--15b--15pb--15--15b--15pbr---15--15b--|
G|----------------------------------|---------------------------------------|
D|----------------------------------|---------------------------------------|
A|--14--13--12--10--12--10------10--|---------------------------------------|
E|--------------------------12------|---------------------------------------|


     s   s   s   s   s   s   s   s   s   s   e      s   e   s    s  s   s   s   s   s   e   e   e
e|----------------------------------------------|--------------------------------------------------|
B|--12--15--12------12--------------------------|--12--15b--15--14--12-----------------------------|
G|--------------15------15--14--12--14------12--|-----------------------15--14--12------12--11--9--|
D|--------------------------------------14------|-----------------------------------14-------------|
A|----------------------------------------------|--------------------------------------------------|
E|----------------------------------------------|--------------------------------------------------|


    e  s  s  q  e  s  s  q     s s  e  q  s s   e  q
e|--------------------------|-------------------------|
B|--------------------------|-------------------------|
G|--7-----------------------|-------7--7--------9--9--|
D|-----9--8--7--5--7--5-----|--7/9--------9/11--------|
A|-----------------------7--|-------------------------|
E|--------------------------|-------------------------|


   er  s  s   e  e   e  s  e  .e    e  s  e  .e  q   q
e|-----8--9--10--9---------------|----------------------|
B|------------------10-----------|--------5-------------|
G|----------------------9--8--7--|--6--------7--6qb-----|
D|-------------------------------|-----7-------------7--|
A|-------------------------------|----------------------|
E|-------------------------------|----------------------|


    e  s s  s  s  e  s  s s  s  e  s s     s  s  e   s  s  s  s  s  s  s  s  e  s  s
e|----------5-------------5-------------|--5---------5---------------------------------|
B|-------------8--5----------8--5-------|-----5--8b-----8--5---------------------------|
G|--0--5h6-----------5h6-----------5h6--|---------------------7--5-----7-----5---------|
D|--------------------------------------|---------------------------7-----7-----7--5---|
A|--------------------------------------|----------------------------------------------|
E|--------------------------------------|----------------------------------------------|


    e  e  s .e  .e  .e   ete    s  s  s  e  s  q  q      q     e      s      e      e     e  e  e
e|---------------------------|-----------------------|---------------------------------------------|
B|---------------------------|-----------------------|---------------------------------------------|
G|-----5--7--5--7b--6b--5qb--|-----------5--7--5-----|--9b1q--8pb1q--9pb1q--9pb1q--9pb1q--9--8--7--|
D|--7------------------------|--7--5--7-----------7--|---------------------------------------------|
A|---------------------------|-----------------------|---------------------------------------------|
E|---------------------------|-----------------------|---------------------------------------------|


    e  s  s  q   s s    e   e   s   s     e    e    q    s   s  s   s   s   .ete 
e|-------------------------------------|------------------------------------------|
B|-----------------------------13--14--|--15--15b--15b--12--15p12------12---------|
G|--5-----5-----10/12--14--14----------|---------------------------14------14pbr--|
D|-----7-----7-------------------------|------------------------------------------|
A|-------------------------------------|------------------------------------------|
E|-------------------------------------|------------------------------------------|


    s   s    s    .e   s  .e   q    er  s   s   s   s    s   s   s   s   s   s   s    s    s   ste
e|--------------------------------|---------------------------------------------------------------|
B|--------------------------------|-----------------12--14--15--12--14------12--------------------|
G|--12--14--14br--12--14--12------|-----12--13--14----------------------14------14br--12--14--12--|
D|----------------------------14--|---------------------------------------------------------------|
A|--------------------------------|---------------------------------------------------------------|
E|--------------------------------|---------------------------------------------------------------|


     s  s   s  s    s  s   s   s   s   s   q
e|--------------------------------------------|
B|--------------------------------------------|
G|--------------------------------------------|
D|--14--12--14p12------12---------------------|
A|-----------------14------14--13--12--10-----|
E|----------------------------------------12--|



Chorus Reprise



  .q  .q    q      .q    q   e    q
e|---------------|---------------13b--|
B|---------------|--------------------|
G|--5------------|--5----7--7---------|
D|--5---5----5---|--5----7--7---------|
A|--7---5----5---|--3----5--5---------|
E|------3----3---|--------------------|

                                        
    s  sr  s sr  s sr s   s  s  s  s   s  s  s  s     s  s  s  s  s  s  s  s s  s  s s  s  s  e
e|--12----11----10----9--10p7------7---------------|---------------------------------------------|
B|-----------------------------10-----10--9--8-----|--8------------------------------------------|
G|----------------------------------------------9--|-----9--7--------9-----9p7-------------------|
D|-------------------------------------------------|-----------9--9-----9-------9--7h5-----7--5--|
A|-------------------------------------------------|------------------------------------7--------|
E|-------------------------------------------------|---------------------------------------------|


  .q  .q    q      .q    q   e    qtw
e|---------------|--------------------|
B|---------------|---------------12b--|
G|--5------------|--5----7--7---------|
D|--5---5----5---|--5----7--7---------|
A|--7---5----5---|--3----5--5---------|
E|------3----3---|--------------------|

Bridge


  q   e  e  e  e  e   ete    e  e   e  e  e   e    s s  e       w  
e|-----------------------7--|---------------------------7--|----7----|
B|-----------------------7--|----------------------7/9-----|---------|
G|-----------------------7--|------------------------------|---------|
D|--9--11--9--9--9--11---9--|--9--11--9--9--9--11----------|---------|
A|--7--7---7--7--7--7-------|--7--7---7--7--7--7-----------|---------|
E|--------------------------|------------------------------|---------|


    er s  s   s  s  s  s   s   e    s   s  s  e
e|-----7--9--10--9--7------7---------------------|
B|---------------------10-----10br--8--10--8-----|
G|--------------------------------------------9--|
D|-----------------------------------------------|
A|-----------------------------------------------|
E|-----------------------------------------------|


Outro

   .q .qtq     .q    q  e   q       s  s  e  s  s  e  s  s  s  s  s  s  e
e|-----------|------------------|------------------------------------------|
B|--10\8-----|------------------|--10--8--7--------------------------------|
G|-----------|--5----7--7----9--|------------9--7-----7--------------------|
D|-----------|--5----7--7----9--|------------------9-----9--9--8--7--5-----|
A|-----------|--3----5--5----7--|---------------------------------------7--|
E|-----------|------------------|------------------------------------------|

    s  e  s  s  s  s  s s  s  s  s  qte
e|----------------------------------------|
B|----------------------------------------|
G|-------------------------7-----7--9brb--|
D|--------5--7--5-----7/9-----9-----------|
A|--5--7-----------7----------------------|
E|----------------------------------------|


    q  .q    q      .q    q   e  q
e|---------------|------------------|
B|---------------|------------------|
G|--5------------|--5----7--7----9--|
D|--5---5----5---|--5----7--7----9--|
A|--7---5----5---|--3----5--5----7--|
E|------3----3---|------------------|


            [   3   ]     [    3    ]     [   3    ]
    s   s    s   s  s  s   s    s  s  s   s  s  s    s   s   q
e|--15------12---------------------------------------------------|
B|------15------15p12------12------------------------------------|
G|---------------------14------14p12------12---------------------|
D|------------------------------------14------14p12------12--14--|
A|---------------------------------------------------14----------|
E|---------------------------------------------------------------|


             [ 3 ]        [ 3 ]
    s  s  s  s s s  s  s  s s s  s  s  q     q  .q    q      .q    q   e  .e   s
e|----------------------------------------|---------------|-----------------------|
B|--8-----8-------------------------------|---------------|-----------------------|
G|-----9-----7h9p7------------------------|--5------------|--5----7--7----9---16--|
D|------------------9--7--7p5h7-----7--5--|--5---5----5---|--5----7--7----9-------|
A|-------------------------------7--------|--7---5----5---|--3----5--5----7-------|
E|----------------------------------------|------3----3---|-----------------------|



     s   s   s   s   s   s   s   s   s   s   s   s   s  .e      s   s   s   s    .h
e|----------15--16--17------15------17------15--------------|------15------15--17brb--|
B|--15--17--------------17------17------17------17--15--17--|--17------17-------------|
G|----------------------------------------------------------|-------------------------|
D|----------------------------------------------------------|-------------------------|
A|----------------------------------------------------------|-------------------------|
E|----------------------------------------------------------|-------------------------|





************************************

| /   slide up
| \   slide down
| h   hammer-on
| p   pull-off
| ~   vibrato
| +   harmonic                  
| x   Mute note
| b   Bend
| pb  Pre-bend
| br  Bend release
| pbr Pre-bend release
| brb Bend release bend

************************************
Suggest correction
Give kudos to tab author, rate the tab!
1 2 3 4 5
comments
print report bad tab
guest
You may want to rate the tab now too:
select rating
Wanna post a correction for this tab? Suggest correction