Oops, an error
Loading. Please wait.

Rock Bottom Tab

version 1
version 1

Whole song

Interactive

by UFO
128,767 views 237 this week
15 commentsread comments
1 2 3 4 5
accurate
x 22
add to favorites
launch autoscroll
font size
0
reset
how to read this tab
guitar tuner
Autoscroll
slow
fast
+/-
esc
set tempo
stop
Help us to improve Ultimate-Guitar.com Take our survey!
×
Author
[Main Riff]
 
E|------------------------------------------------------------------|
B|------------------------------------------------------------------|
G|------------------------------------------------------------------|
D|----7---5-------5-------------------7---5-------5---------------5-|
A|------------6-7---------5h7p5---------------6-7---------5h7p5-----|
E|-00---0---0-------0-6-7-------7-0-0---0---0-------0-6-7-------7---|

 
[Chorus]
 
E|---------------------------------------------------------------------|
B|---------------------------------------------------------------------|
G|-7-7s9--7-7s9--7-7s9---------------7-7s9--7-7s9--7-7s9---------------|
D|-7-7s9--7-7s9--7-7s9--10-9-7-11-7--7-7s9--7-7s9--7-7s9--10-9-5-11-7--|
A|-5-5s7--5-5s7--5-5s7--10-9-7-11-7--5-5s7--5-5s7--5-5s7--10-9-5-11-7--|
E|----------------------8--7-5-9--5-----------------------8--7-7-9--5--|
 
 
[Bridge]

(3rd Verse)
 
E|-------------------------------------------------------------------|
B|-------------------------------------------------------------------|
G|-7-7-7-x-x-6-6-6-x-x-9-9-9-x-x-12-12-12-x-x-7-7-7-x-x-6-6-6-x-x-7--|
D|-7-7-7-x-x-6-6-6-x-x-9-9-9-x-x-12-12-12-x-x-7-7-7-x-x-6-6-6-x-x-7--| x3
A|-5-5-5-x-x-4-4-4-x-x-7-7-7-x-x-10-10-10-x-x-5-5-5-x-x-4-4-4-x-x-5--|
E|-------------------------------------------------------------------|
 

[Solo]
  
Soloist
E|----------------------------------------------------------|
B|----------------------------------------------------------|
G|----------------------------------------------------------|
D|----------------------7-7-7-7-7-7-7----7---7--------------|
A|-----------7-10-9-10----------------10---9---10-10--------|
E|-10-9-10--------------------------------------------------|
 
Soloist
E|----------------------------------------------------------|
B|---------------------------------8-8-7-7-8-8-10-10-12-12--|
G|--------------7---6---7--7-9-9-9--------------------------|
D|-7-7-7-7-7-9----7---7-------------------------------------|
A|----------------------------------------------------------|
E|----------------------------------------------------------|
 
Soloist
E|-------14-15-15p14-15p14-15p14-17p14-15p14-17p14-15p14----|
B|-13b14----------------------------------------------------|
G|----------------------------------------------------------|
D|----------------------------------------------------------|
A|----------------------------------------------------------|
E|----------------------------------------------------------|
 
Soloist
E|-17p14-15p14-17p14-15p14-17-17-17-17-14-17p14----17p14----|
B|----------------------------------------------15-------15-|
G|----------------------------------------------------------|
D|----------------------------------------------------------|
A|----------------------------------------------------------|
E|----------------------------------------------------------|
 
Soloist
E|-17p14----17p14----17p14-14-15-15-14-15p14p12-14-12-14p12-|
B|-------15-------15----------------------------------------|
G|----------------------------------------------------------|
D|----------------------------------------------------------|
A|----------------------------------------------------------|
E|----------------------------------------------------------|
 
Soloist
E|----12----------------------------------------------------|
B|-15----15-15-15-12-15-12-15-15-15-12-15-12----------------|
G|-------------------------------------------14-14-12-14-12-|
D|----------------------------------------------------------|
A|----------------------------------------------------------|
E|----------------------------------------------------------|
 
Soloist
E|-----------------------------12-12----------12-12---------|
B|--------------------------12-------------12-------15-15-7-|
G|-14-14-14-12----12--14-14----------14-14------------------|
D|-------------14-------------------------------------------|
A|----------------------------------------------------------|
E|----------------------------------------------------------|
 
Soloist
E|-12-12--------15p12-------12-------12------------12---12--|
B|-------15-15--------15-15----15-15----15-15---------------|
G|----------------------------------------------------------|
D|----------------------------------------------------------|
A|----------------------------------------------------------|
E|----------------------------------------------------------|
 
Soloist
E|-15p12----12----------------------------------------------|
B|-------15----------12-15p12----12----12-------------------|
G|-------------14-14----------14----14----14-12-14-12----12-|
D|----------------------------------------------------14----|
A|----------------------------------------------------------|
E|----------------------------------------------------------|
 
Soloist
E|----------------------------------------------------------|
B|----------------------------------------------------------|
G|----------------------------------------------------------|
D|----12-14-12----12----------7-----------------------------|
A|-14----------14----14-13-12---10---12-10------------------|
E|-----------------------------------------12-10--12-10-12--|
 
Soloist
E|------------------------------------------------------------|
B|------------------------------------------------------------|
G|---------------------------------------------------12----14-|
D|-------------------------------12----12--14-12-14-----14----|
A|-10----10--12-10-12--14-12-14-----14------------------------|
E|----12------------------------------------------------------|
 
Soloist
E|------------------------------12----12-------12-12-------12-|
B|-----------12----12-14-12-14-----15----15-15-------15-15----|
G|-14-12-14-----14--------------------------------------------|
D|------------------------------------------------------------|
A|------------------------------------------------------------|
E|------------------------------------------------------------|
 
Soloist
E|-------12----------12-14-15-14-15-15--15--14-15--17-17-17p15-|
B|-15-15----15-15-15-------------------------------------------|
G|-------------------------------------------------------------|
D|-------------------------------------------------------------|
A|-------------------------------------------------------------|
E|-------------------------------------------------------------|
 
Soloist
E|-17-17-17-17p15-17-17-17-17p15-17-17-17-17p15-17-17-17-17p15-|
B|-------------------------------------------------------------|
G|-------------------------------------------------------------|
D|-------------------------------------------------------------|
A|-------------------------------------------------------------|
E|-------------------------------------------------------------|
 
Soloist
E|-17-17-17-17p15-17-15--17-15-----X-X--22-22-22-22-22-22-19---|
B|-----------------------------17------------------------------|
G|-------------------------------------------------------------|
D|-------------------------------------------------------------|
A|-------------------------------------------------------------|
E|-------------------------------------------------------------|
 
Soloist
E|-22-22-19-22-22-19-22-22-19-22-19--17-17-17-15-17-15-14-15---|
B|-------------------------------------------------------------|
G|-------------------------------------------------------------|
D|-------------------------------------------------------------|
A|-------------------------------------------------------------|
E|-------------------------------------------------------------|
 
Soloist
E|-17p15p14-15-14----------------------------------------------|
B|----------------17-15-17~~~~~-15-17-17-17-17-15-17-15--------|
G|------------------------------------------------------16-14--|
D|-------------------------------------------------------------|
A|-------------------------------------------------------------|
E|-------------------------------------------------------------|
 
Soloist
E|-------------------------------------------------------------|
B|-------------------------------------------------------------|
G|-12-14-12h14p12-11-12-11----------12-14-14-14-12--14-12-14---|
D|-------------------------12-12-14----------------------------|
A|-------------------------------------------------------------|
E|-------------------------------------------------------------|
 
Soloist
E|-------------------------------------------------------------|
B|----15------------------------12-15-12-------12-15-12--------|
G|-14----14-14-12--14-12--14-14----------14-14----------14-14--|
D|-------------------------------------------------------------|
A|-------------------------------------------------------------|
E|-------------------------------------------------------------|
 
Soloist
E|-------------------------------------------------------------|
B|-12-15-12-------12-15-------12-15-12-------12-15-12-------12-|
G|----------14-14-------14-14----------14-14----------14-14----|
D|-------------------------------------------------------------|
A|-------------------------------------------------------------|
E|-------------------------------------------------------------|
 
Soloist
E|-------------12-------------12-------------12-------------12-|
B|-15-12----------15-12----------15-12----------15-12----------|
G|-------14-14----------14-14----------14-14----------14-14----|
D|-------------------------------------------------------------|
A|-------------------------------------------------------------|
E|-------------------------------------------------------------|
 
Soloist
E|---------------------------14-12-14-15--14-12-----12---------|
B|-15-12-15-15-12h14----------------------------15-----15--15--|
G|-------------------------------------------------------------|
D|-------------------------------------------------------------|
A|-------------------------------------------------------------|
E|-------------------------------------------------------------|
 
Rhythm (played in conjunction as the notes on lead)
E|-----------------------------------------------------------------|
B|-----------------------------------------------------------------|
G|---------------------5-5-5--5--5--5-----4--4--4-----------4--4---|
D|---------------------5-5-5--5--5--5-----4--4--4-----------4--4---|
A|---------------------3-3-3--3--3--3-----2--2--2-----------2--2---|
E|-----------------------------------------------------------------|
 
Soloist
E|-12-14-15-12h14-15-12h14-15-12h14h15-12h14h15--15p14p12-15p14p12-|
B|-----------------------------------------------------------------|
G|-----------------------------------------------------------------|
D|-----------------------------------------------------------------|
A|-----------------------------------------------------------------|
E|-----------------------------------------------------------------|
 
Rhythm
E|-----------------------------------------------------------------|
G|-----------------------------------------------------------------|
G|--4-----9--9----9---------9-----9-----9--------12----12----------|
D|--4-----9--9----9---------9-----9-----9--------12----12----------|
A|--2-----7--7----7---------7-----7-----7--------10----10----------|
E|-----------------------------------------------------------------|
 
Soloist
E|-15p14p12-15p14p12--12-15-15-15----15-12----------12------------------|
B|-----------------------------------------15-15-------15--15-15-12-15--|
G|----------------------------------------------------------------------|
D|----------------------------------------------------------------------|
A|----------------------------------------------------------------------|
E|----------------------------------------------------------------------|
 
Rhythm
E|---------------------------------------------------------------------|
B|---------------------------------------------------------------------|
G|-12----12----12-----12--------5--5--5-----5-----5--5------4-----4--4-|
D|-12----12----12-----12--------5--5--5-----5-----5--5------4-----4--4-|
A|-10----10----10-----10--------3--3--3-----3-----3--3------2-----2--2-|
E|---------------------------------------------------------------------|
 
Soloist
E|--------------12----------------------------|
B|-12-------12------12--15--15~~~~~~~~~~~~~~--|
G|----14-14-----------------------------------|
D|--------------------------------------------|
A|--------------------------------------------|
E|--------------------------------------------|
 
Rhythm
E|---------------------------------------------|
B|---------------------------------------------|
G|--------4--4---4---4---9---------------------|
D|--------4--4---4---4---9---------------------|
A|--------2--2---2---2---7---------------------|
E|-------------------------------------------0-|



************************************

| x  Dead note
| h  Hammer-on
| p  Pull-off
| b  Bend
| ~  Vibrato
| s  Slide

************************************
Suggest correction
What's this?
You can suggest a correction to this tab. Community and Mods will review your correction and vote to approve or reject it.
comments
print report bad tab
15 comments total. Showing first comments.
0 reply
~dEaD bRaIn~ 17 wrote on October 3 2004, 12:00 am

fukin neat dude...ur rite on..

-2 reply
PhilGibson 10 wrote on September 9 2005, 12:00 am

ROCK BOTTOM: Main Riff

E-----|------------------------------------
B-----|------------------------------------
G-----|------------------------------------
D-----|-7---5---------5--------------------
A-----|---7---7--5--7---7------5h7p5-------
E---00|-------------------5--7-------7-----

E------------------------------------------
B------------------------------------------
G------------------------------------------
D------7---5---------5-----------------5---
A--------7---7--5--7---7------5h7p5--------
E---00--------------------5-7-------7----0-

The high note "G", at the end of the riff is
a slightly pinched harmonic (just catching
the string with the skin of the thumb as well
as the plectrum). Riff repeats from the bar
line.

+4 reply
alexpenno 88 wrote on May 18 2006, 01:36 pm

The solo isnt 100% correct and most of it is missing!!!!!!

guest
You may want to rate the tab now too:
select rating
Please do not post tabs as comments. Select "correction" instead!