Oops, an error
Loading. Please wait.

Diamonds On The Face Of Evil Tab

version 1
version 1

Whole song

4,066 views 6 this week
5 commentsread comments
1 2 3 4 5
x 4
add to favorites
launch autoscroll
font size
0
reset
how to read this tab
guitar tuner
Autoscroll
slow
fast
+/-
esc
set tempo
stop
Help us to improve Ultimate-Guitar.com Take our survey!
×
Author
Tabbed by:CMM
Email:colin_michael_muppet@hotmail.com

Tuning:Standard

(Main Riff)
e|--12--0--------------------------------12--0-------------------------|
B|---------12--12-------10---8--5---------------12--0-------10---8--0--|
G|--------------------9----9------------------------------9----9-------|
D|---------------------------------------------------------------------|
A|----------0---0--------------------------------0--0------------------|
E|---0--0-----------8---------------------0--0----------8--------------|

(Main Riff Variation)
e|-------------------------------------|
B|---------12--12--10------10---8--5---|
G|----------------------9-----9--------|
D|-12--14------------------------------|
A|----------0---0----------------------|
E|--0---0-----------8------------------|

(Clarinet)
e|-----------------------------------------------|
B|-----------------------------------------------|
G|-----------------------------------------------|
D|-9/12\10---9/10\9/10\9\7--------5/7\5/7\5------|
A|------------------------------------------7----|
E|-----------------------------------------------|

NOTES: Note that there is a difference in the main riff when played, and that I did not
just type the same thing twice. As for the main riff variation, remember to hold onto the
high A before playing that note again. Finally, (though this is obviously not needed) to
play the guitar part, use your thumb to play any notes on the low E or the A string. For
the two appearing notes on the D string, use your index finger so the middle finger will
be read to hit the next notes. Play the notes on the G string with your index finger so
the middle finger can easily hit the few notes above it. Finally, play the B, and high E
string notes with your middle finger. Sha sha sha sha.

| /  slide up
| \  slide down
| h  hammer-on
| p  pull-off
| ~  vibrato
| +  harmonic
| x  Mute note
Suggest correction
comments
print report bad tab
5 comments total. Showing first comments.
0 reply
CMM 1,011 Dec 05, 2004 12:00 AM

I wonder how many people even read these UC tabs.

0 reply
cityLeaves 30 Nov 14, 2006 08:23 PM

Just a suggestion I think it sounds better like this. Otherwise, good tab.
e|--12--0--------------------------------12--0-------------------------|
B|---------12---0-------10---8--5---------------12--0-------10---8--0--|
G|--------------------9----9------------------------------9----9-------|
D|---------------------------------------------------------------------|
A|------7---9---0----------------------------7---9--0------------------|
E|---0-------------8---------------------0--------------8--------------|

0 reply
cityLeaves 30 Nov 14, 2006 09:42 PM

Whoops, meant to write
e|--12--0----------|
B|---------12---0--|
G|-----------------|
D|-----------------|
A|------7--10---0--|
E|---0-------------|

guest
You may want to rate the tab now too:
select rating
Wanna post a correction for this tab? Suggest correction