Oops, an error
Loading. Please wait.

Everything About You Tab

version 1
version 1

Whole song

88,944 views 213 this week
5 commentsread comments
1 2 3 4 5
x 20
add to favorites
launch autoscroll
font size
0
reset
how to read this tab
guitar tuner
×
Best way to learn
"Everything About You"
Autoscroll
slow
fast
+/-
esc
set tempo
stop
Author
Difficulty
  follow
intermediate
everything about you -ugly kid joe

by jason prowd 


[Intro]

 (clean)
e|--- -------------------------------------------------------------------|
B|---3------------------------------2------------------------------------|
G|---2------------------------------3------------------------------------|
D|---0-----------2------------------0-----------2----------/5-----4--2---|
A|---------2-----0------0--2--0-----------2-----0------0-------0---------|
E|----------3------------------------------3-----------------------------|

e|-------2----------------5-------------------2----------------|
B|-----3----------------------------------3-----3--------------|
G|---2-----------------2------------------2-------2----------2-|
D|-0-------------2---2--------------------0------------------2-|
A|----------2----0--------------0--2--0---------------2------0-|
E|------------3------------------------------------------3-----|


[Distortion]

e|------------------------------------------|------------------------------|
B|------------------------------------------|------------------------------|
G|---------------------------------|p.m|----|------------------------------|
D|------------7-7-7----------2--2---2-2--2--|----------7-7-7---------2--2--|
A|-0-2-0------5-5-5---2------0--0---0-0--0--|-0-2-0----5-5-5---2-----0--0--|
E|----------------------3-------------------|--------------------3---------|

e|--------------------|-------------------------------------------|-------|
B|--------------------|-------------------------------------------|-------|
G|--------------------|----------------------------------|p.m|----|-------|
D|--|P.M|--5-----4--2-|-------------7-7-7----------2--2---2-2--2--|-------|
A|---0-0------0-------|--0-2-0------5-5-5---2------0--0---0-0--0--|-0-2-0-|
E|--------------------|-----------------------3-------------------|-------|

e|----------------|
B|----------------|
G|-------------2--|  END OF INTRO
D|-7-7-7-------2--|
A|-5-5-5--2----0--|
E|----------3-----|


[Verse]

          i....hate the.....
e|-----------------------------------------|   |----------------------------|
B|-----------------------------------------|   |------------------------2-2-|
G|----------------------------------2---2--|   |------------------------2-2-|
D|------------7-7-7----------2--2---2---2--|x7 |---------7-7-7-------2--2-2-|
A|-0-2-0------5-5-5---2------0--0---0-0-0--|   |-0-2-0---5-5-5--2----0------|
E|----------------------3------------------|   |------------------3---------|


[Pre-Chorus]

e|----------------|
B|----------------|
G|----------------|
D|-3---3-3-3---5--|
A|-3---3-3-3---5--|
E|-1---1-1-1---3--|


[Chorus]

e|-----------------------------|-----------------------|---------------|
B|-----------------------------|-----------------------|---------------|
G|-----------------------2---2-|-----------------------|---------------|
D|-7-7-7----------2--2---2---2-|--------7-7-7--------2-|---------------|
A|-5-5-5----2-----0--0---0-0-0-|-0-2-0--5-5-5---2----0-|--10--10h12-13-|
E|------------3----------------|------------------3----|---------------|


[Verse 2]

          i....hate the.....
e|-----------------------------------------|   |----------------------------|
B|-----------------------------------------|   |------------------------2-2-|
G|----------------------------------2---2--|   |------------------------2-2-|
D|------------7-7-7----------2--2---2---2--|x7 |---------7-7-7-------2--2-2-|
A|-0-2-0------5-5-5---2------0--0---0-0-0--|   |-0-2-0---5-5-5--2----0------|
E|----------------------3------------------|   |------------------3---------|


[Pre-Chorus 2]

e|-----------------------------------------------------------------|
B|-----------------------------------------------------------------|
G|-----------------------------------------------------------------|
D|-3---3-3-3---5---5-5-5---3---3-3-3---5---5-5-5----3---3-3-3---5--|
A|-3---3-3-3---5---5-5-5---3---3-3-3---5---5-5-5----3---3-3-3---5--|
E|-1---1-1-1---3---3-3-3---1---1-1-1---3---3-3-3----1---1-1-1---3--|


[Chorus 2]

e|------------------------------|-------|       |-----------|
B|------------------------------|-------|       |-----------|
G|------------------------2---2-|-------|       |-----------|
D|--7-7-7----------2--2---2---2-|-------| x3    |--7--5--2--|
A|--5-5-5----2-----0--0---0-0-0-|-0-2-0-|       |--5--3--0--|
E|-------------3----------------|-------|       |-----------|


[Bridge]
(clean)

e|------3-----------------3------------------5---------------5---|
B|--------3---3-------------3------------------5---5-----------5-|
G|----------3-----------------------------2------5--------2------|
D|---0----------------0-----------------2---------------2--------|
A|---0--------------0---0-----------0-----------------0----------|
E|-3--------------3-------------4--------------------------------|

                                                (distortion)
e|-------------3-------------------3------|----------------------------|
B|---------------3----3--------------3----|----------------------------|
G|----------3------3----------------------|--2-2-2-2-2-2-2-2-2-2-2-2-2-|
D|-------0--------------------0-----------|--2-2-2-2-2-2-2-2-2-2-2-2-2-|
A|--------------------------0---0---------|--0-0-0-0-0-0-0-0-0-0-0-0-0-|
E|-4--3-------------------3-------------4-|----------------------------|


[Solo]

e|----------------------------------------------------|
B|-15--15-15-15--12--------------------------12-------|
G|------------------12---14^--14-14-14-14-14-----14---|
D|----------------------------------------------------|
A|----------------------------------------------------|
E|----------------------------------------------------|

e|-----------------------------------------15----15-13--|
B|-15--15-15-15--12------------------------14----14-13--|
G|------------------12---14^--14-14-14--14-14-14-14-13--|
D|------------------------------------------------------|
A|------------------------------------------------------|
E|------------------------------------------------------|

e|-----------------------------------------------------------------13-15-|
B|-15--15-15-15--12--------------------------12-------15--15-15-15-------|
G|------------------12---14^--14-14-14-14-14-----14----------------------|
D|-----------------------------------------------------------------------|
A|-----------------------------------------------------------------------|
E|-----------------------------------------------------------------------|

e|-15^--15^-15^-15^-15^-15^-15^-15-|-7-7-8-8-10-8-7----9-9-10-10-12-10-9--|
B|---------------------------------|--------------------------------------|
G|---------------------------------|--------------------------------------|
D|---------------------------------|--------------------------------------|
A|---------------------------------|--------------------------------------|
E|---------------------------------|--------------------------------------|

e|--------------------------------7-7-8-8-10-8-7------|-----17-------------|
B|-0-0-1-1-3-1-0----2-2-3-3-5~--------------------10--|-17^----17---15~~---|
G|----------------------------------------------------|--------------------|
D|----------------------------------------------------|--------------------|
A|----------------------------------------------------|--------------------|
E|----------------------------------------------------|--------------------|


[Post-solo riff]

e|-------------------------------------------------|
B|-------------------------------------------------|
G|-------------------------------------------------|
D|-7--7--7---7-7-7-7-7-7---------------------------| x10
A|-5--5--5---5-5-5-5-5-5----7--7--7---7-7-7-7-7-7--|
E|--------------------------5--5--5---5-5-5-5-5-5--|

e|-----------------------------|
B|-----------------------------|
G|-----------------------------|
D|-3--3-3-3-3-3---5--5-5-5-5-5-| x4
A|-3--3-3-3-3-3---5--5-5-5-5-5-|
E|-1--1-1-1-1-1---3--3-3-3-3-3-|


[Outro]

    HATE EVERYTHING ABOOOOOOOUUUUT  YOU
e|----------------------------------------------------------------------------|
B|----------------------------------------------------------------------------|
G|----------------------------------------------------------------------------|
D|-----------------------------------------6-6--5-5--4-4--3-3--2--22222222222-|
A|-----------------------------------------6-6--5-5--4-4--3-3--2--22222222222-|
E|----------------------------------------------------------------------------|

e|-------------------------|
B|-------------------------|
G|-------------------------|
D|--5--0-0---2--0---4--5---|
A|--5--0-0---2--0---4--5---|
E|-------------------------|
Suggest correction
comments
print report bad tab
5 comments total. Showing first comments.
+1 reply
sk8erjason 10 Oct 10, 2008 03:51 AM

great

+1 reply
LoserBrett 31 Mar 22, 2010 12:09 PM

Great tab, once you get the timing right. I only have a couple of corrections.

Pre chorus

|----------------|
|----------------|
|----------------|
|-5---5-5-5---7--|
|-5---5-5-5---7--|
|-3---3-3-3---5--|


1st chorus end
*
|---------------|
|----------7\---|
|------6h9------|
|---7-----------|
|---------------|
|---------------|
*PM


Outro
Gtr. 1
|----------------------------------------|
|----------------------------------------|
|----------------------------------------|
|----------------------------------------|
|--5--5----------------------------------|
|-------8--8-7--7-6--6-5/////////////17--|

Gtr. 2
|----------------------------------------|
|------7--7-8--8-9--9-10-~~~~~~~~~~~10---|
|-7--7-----------------------------------|
|----------------------------------------|
|----------------------------------------|
|----------------------------------------|
~Trill


"Shave and a haircut..."
|-----------------|
|-----------------|
|-----------------|
|-7----------6-7--|
|-5----------4-5--|
|---5-5-7-5-------|


Ugly Kid Joe had two guitarists, so there's some other stuff in the tab that's actually two guitarists harmonizing, erroneously recorded as chords.

Not the best tab I've seen, but it's the closest I've seen yet-- good work!

+1 reply
LoserBrett 31 Mar 22, 2010 12:12 PM

Sorry, correction to my correction (didn't catch it until after I posted it and I can't find a way to edit the original).

1st chorus end

*
|---------------|
|----------10\--|
|------6h9------|
|---7-----------|
|---------------|
|---------------|
*PM

guest
You may want to rate the tab now too:
select rating
Wanna post a correction for this tab? Suggest correction