Oops, an error
Loading. Please wait.

Strange Tab

13 views 1 this week
no commentswrite comment
1 2 3 4 5
3 more votes to show rating
add to favorites
launch autoscroll
font size
0
reset
how to read this tab
guitar tuner
Autoscroll
slow
fast
+/-
esc
set tempo
stop
Help us to improve Ultimate-Guitar.com Take our survey!
×
Author
Difficulty
Tuning
novice
C# G# C# F# A# D#
STRANGE - Ugly Kid Joe
----------------------
Tuning: Drop C#

[Intro]

D#|---------------|----|--|---------------|-----------|
A#|---------------|----|--|---------------|-----------|
F#|---------------|----|--|---------------|-----------|
C#|---------------|----|--|---------------|-----------|
G#|-0--7-0--6-5-3-|-0--|--|-0--7-0--6-5-3-|-5--6-7-10-|
C#|-0--7-0--6-5-3-|-0--|--|-0--7-0--6-5-3-|-5--6-7-10-|


[Verse 1]

D#|---------------|------------|---------------|------------|---------------|
A#|---------------|------------|---------------|------------|---------------|
F#|---------------|------------|---------------|------------|---------------|
C#|---------------|------------|---------------|------------|---------------|
G#|---------------|------------|---------------|------------|---------------|
C#|-0-0--0-0--0-0-|-3--4--5--6-|-0-0--0-0--0-0-|-5--6--7--3-|-0-0--0-0--0-0-|

D#|------------|---------------|------------|
A#|------------|---------------|------------|
F#|------------|---------------|------------| 2x
C#|------------|---------------|------------|
G#|------------|---------------|------------|
C#|-3--4--5--6-|-0-0--0-0--0-0-|-0--5--6--7-|


[Chorus]

D#|---------------|-------------------|---------------|-------------------|
A#|---------------|-------------------|---------------|-------------------|
F#|---------------|-------------------|---------------|-------------------|
C#|---------------|-------------------|---------------|-------------------|
G#|-0---7-0-6-5-3-|-5-----------------|-0---7-0-6-5-3-|-5-----------------|
C#|-0---7-0-6-5-3-|-5---0-3-5-6-5-3-5-|-0---7-0-6-5-3-|-5---0-3-5-6-5-3---|

                                                           PM-------------
D#|---------------|-------------------|---------------|-------------------|
A#|---------------|-------------------|---------------|-------------------|
F#|---------------|-------------------|---------------|-------------------|
C#|---------------|-------------------|---------------|-------------------|
G#|-0---7-0-6-5-3-|-5-----------------|-0---7-0-6-5-3-|-5-----------------|
C#|-0---7-0-6-5-3-|-5---0-3-5-6-5-3-5-|-0---7-0-6-5-3-|-5---0-3-5-6-5-3---|


[Verse 2]

D#|---------------|------------|---------------|------------|---------------|
A#|---------------|------------|---------------|------------|---------------|
F#|---------------|------------|---------------|------------|---------------|
C#|---------------|------------|---------------|------------|---------------|
G#|---------------|------------|---------------|------------|---------------|
C#|-0-0--0-0--0-0-|-3--4--5--6-|-0-0--0-0--0-0-|-5--6--7--3-|-0-0--0-0--0-0-|

D#|------------|---------------|------------|
A#|------------|---------------|------------|
F#|------------|---------------|------------| 2x
C#|------------|---------------|------------|
G#|------------|---------------|------------|
C#|-3--4--5--6-|-0-0--0-0--0-0-|-0--5--6--7-|


[Chorus]

D#|---------------|-------------------|---------------|-------------------|
A#|---------------|-------------------|---------------|-------------------|
F#|---------------|-------------------|---------------|-------------------|
C#|---------------|-------------------|---------------|-------------------|
G#|-0---7-0-6-5-3-|-5-----------------|-0---7-0-6-5-3-|-5-----------------|
C#|-0---7-0-6-5-3-|-5---0-3-5-6-5-3-5-|-0---7-0-6-5-3-|-5---0-3-5-6-5-3---|

                                                             PM-------------
D#|---------------|-------------------|---------------|-------------------|
A#|---------------|-------------------|---------------|-------------------|
F#|---------------|-------------------|---------------|-------------------| 2x
C#|---------------|-------------------|---------------|-------------------|
G#|-0---7-0-6-5-3-|-5-----------------|-0---7-0-6-5-3-|-5-----------------|
C#|-0---7-0-6-5-3-|-5---0-3-5-6-5-3-5-|-0---7-0-6-5-3-|-5---0-3-5-6-5-3---|


[Bridge 1]

D#|----|---------------|-----|---------------|-----|---------------|-----|
A#|----|---------------|-----|---------------|-----|---------------|-----|
F#|----|---------------|-----|---------------|-----|---------------|-----|
C#|----|---------------|-----|---------------|-----|---------------|-----|
G#|0---|-0---7-0-6-5-3-|-0---|-0---7-0-6-5-3-|-5---|-0---7-0-6-5-3-|-0---|
C#|0---|-0---7-0-6-5-3-|-0---|-0---7-0-6-5-3-|-5---|-0---7-0-6-5-3-|-0---|

D#|---------------|------------|
A#|---------------|------------|
F#|---------------|------------| 2x
C#|---------------|------------|
G#|-0---7-0-6-5-3-|-5---6-7-10-|
C#|-0---7-0-6-5-3-|-5---6-7-10-|


[Bridge-Outro]

D#|-------------|-----------------|-----|
A#|-------------|-----------------|-----|
F#|-------------|-----------------|-----|
C#|-------------|-----------------|-----|
G#|-0---7-6-5-3-|-5---------------|-0---|
C#|-0---7-6-5-3-|-5---0-3-5-6-5-3-|-0---|


[Outro / Solo Rythm]
        PM-          PM---            PM---            PM---
D#|----------------|----------------|----------------|--------------|
A#|----------------|----------------|----------------|--------------|
F#|----------------|----------------|----------------|--------------| 
C#|---------5------|---------5------|---------5------|--------5-----| 
G#|-----------5--4-|-----------5--4-|-----------5--4-|----------5-6-|
C#|-0---0-0--------|-0-0-0----------|-0-0-0----------|-0-0-0------6-|

repeat until the end


************************************
         LEGEND

| PM  Palm mute

************************************
Suggest correction
Give kudos to tab author, rate the tab!
1 2 3 4 5
comments
print report bad tab
guest
You may want to rate the tab now too:
select rating
Wanna post a correction for this tab? Suggest correction