Oops, an error
Loading. Please wait.

Debris Tab

631 views 1 this week
no commentswrite comment
1 2 3 4 5
3 more votes to show rating
add to favorites
launch autoscroll
font size
0
reset
how to read this tab
guitar tuner
Autoscroll
slow
fast
+/-
esc
set tempo
stop
Help us to improve Ultimate-Guitar.com Take our survey!
×
Author
-------------------------------------------------------------------------------
                             DEBRIS - UH HUH HER
-------------------------------------------------------------------------------
Tabbed by: Feeb
Email: stockholm_syndrome@live.com.au

Tuning: Drop D

Intro
e|---------------------------------------------------------------------------|
B|---------------------------------------------------------------------------|
G|---------------------------------------------------------------------------|
D|--10-10-10-8-8----------------------10-10-10-8-8---------------------------|
A|--10-10-10-8-8----------------------10-10-10-8-8---------------------------|
D|---8--8--8-8-8---[pause]---8-8-8-----8--8--8-8-8---8-8-8-----8-8-8---------|
                             . . .                   . . .     . . .
Verse
"....now I've said too much..."
e|-----------------------------------------------------------------------------------|
B|-----------------------------------------------------------------------------------|
G|-----------------------------------------------------------------------------------|
D|--10-10-10-8-8------------------------------10-10-10-8-8---------------------------|
A|--10-10-10-8-8------------------------------10-10-10-8-8---------------------------|
D|---8--8--8-8-8---8-8-8---8-8-8---8-8-8-------8--8--8-8-8---8-8-8---8-8-8---8-8-8---|
                   . . .   . . .   . . .                     . . .   . . .   . . .

"...skin is burning off..." ".....hand inside my top....."
e|-----------------------------------------------------------------------------|
B|-----------------------------------------------------------------------------|
G|-----------------------------------------------------------------------------|
D|-----------------------------------------------------------------------------|
A|--10-10-11-11-8--------------------------10-10-11-11-8-----------------------| x 2
D|--10-10-11-11-8-8-8-8---8-8-8---8-8-8----10-10-11-11-8-8-8-8---8-8-8---8-8-8-|
    .  .  .  .  . . . .   . . .   . . .    .  .  .  .  . . . .   . . .   . . .

"....tell me not to stop...."
e|---------------------------------------------------------------------------|
B|---------------------------------------------------------------------------|
G|---------------------------------------------------------------------------|
D|---------------------------------------------------------------------------|
A|-1-1-1-1/8-----------------------------------------------------------------|
D|-1-1-1-1/8-----8-8-8----8-8-8----8-8-8-------------------------------------|
                 . . .    . . .    . . .

"....this will leave a scar..." "......fingers falling hard...."
e|-----------------------------------------------------------------------------------|
B|-----------------------------------------------------------------------------------|
G|-----------------------------------------------------------------------------------|
D|--10-10-10-8-8------------------------------10-10-10-8-8---------------------------|
A|--10-10-10-8-8------------------------------10-10-10-8-8---------------------------|
D|---8--8--8-8-8---8-8-8---8-8-8---8-8-8-------8--8--8-8-8---8-8-8---8-8-8---8-8-8---|
                   . . .   . . .   . . .                     . . .   . . .   . . .

"...I'm a kitten on a wire..." ".....crazy little liar....."
e|-----------------------------------------------------------------------------|
B|-----------------------------------------------------------------------------|
G|-----------------------------------------------------------------------------|
D|-----------------------------------------------------------------------------|
A|--10-10-11-11-8--------------------------10-10-11-11-8-----------------------| x 2
D|--10-10-11-11-8-8-8-8---8-8-8---8-8-8----10-10-11-11-8-8-8-8---8-8-8---8-8-8-|
    .  .  .  .  . . . .   . . .   . . .     .  . . .   . . . .   . . .   . . .

"....hate myself...." ".....taste myself...."
e|---------------------------------------------------------------------------|
B|---------------------------------------------------------------------------|
G|---------------------------------------------------------------------------|
D|---------------------------------------------------------------------------|
A|-1-1-1-1/8-----------------------------------------------------------------|
D|-1-1-1-1/8-----8-8-8----8-8-8----8-8-8-------------------------------------| x 2
                 . . .    . . .    . . .

"...hush......hush"
e|-----------------------------------------------------------------------------|
B|-----------------------------------------------------------------------------|
G|-----------------------------------------------------------------------------|
D|-----------------------------------------------------------------------------|
A|--10~----10-10-10-10-10-10-13~------13-13-13-13-13-13-13~--------------------|
D|--10~----10-10-10-10-10-10-13~------13-13-13-13-13-13-13~--------------------|
            .  .  .  .  .  .           .  .  .  .  .  .

"...nothing's what it seems...."
e|-----------------------------------------------------------------------------|
B|-----------------------------------------------------------------------------|
G|-----------------------------------------------------------------------------|
D|-----------------------------------------------------------------------------|
A|--13-13-13-13-13-13-13-8~----------------------------------------------------| x 3
D|--13-13-13-13-13-13-13-8~------8-8-8-8-8-8-8---------------------------------|
                                 . . . . . . .

"...I am restless on the phone...."
e|--------------------------------------------------------------------------------|
B|--------------------------------------------------------------------------------|
G|--------------------------------------------------------------------------------|
D|--------------------------------------------------------------------------------|
A|--10-10-10-10-10-10-10-13-13-13-13-13-13-13-13~---------------------------------|
D|--10-10-10-10-10-10-10-13-13-13-13-13-13-13-13~---------------------------------|

"...nothing's what it seems...."
e|-----------------------------------------------------------------------------|
B|-----------------------------------------------------------------------------|
G|-----------------------------------------------------------------------------|
D|-----------------------------------------------------------------------------|
A|--8-8-8-8-8-8-8-13-13-13-13-13-13-13-----------------------------------------| x 4
D|--8-8-8-8-8-8-8-13-13-13-13-13-13-13-----------------------------------------|


************************************

| /   slide up
| \   slide down
| h   hammer-on
| p   pull-off
| ~   vibrato
| +   harmonic
| x   Mute note
| b   Bend
| pb  Pre-bend
| br  Bend release
| pbr Pre-bend release
| brb Bend release bend

************************************
Suggest correction
Give kudos to tab author, rate the tab!
1 2 3 4 5
comments
print report bad tab
guest
You may want to rate the tab now too:
select rating
Wanna post a correction for this tab? Suggest correction