Oops, an error
Loading. Please wait.

Explode Tab

480 views 1 this week
no commentswrite comment
1 2 3 4 5
please rate
add to favorites
launch autoscroll
font size
0
reset
how to read this tab
guitar tuner
Autoscroll
slow
fast
+/-
esc
set tempo
stop
Help us to improve Ultimate-Guitar.com Take our survey!
×
Author
-------------------------------------------------------------------------------
                                EXPLODE - UH HUH HER
-------------------------------------------------------------------------------
Tabbed by: Feeb
Email: stockholm_syndrome@live.com.au

Tuning: Drop D

Video tutorial on the verse strumming pattern. Watch it:
http://www.youtube.com/watch?v=wd_78qiLJEU 

Intro (hypersaw synth- heavy distortion on guitar)
e|---------------------------------------------------------------------------|
B|---------------------------------------------------------------------------|
G|-------------5~------------------------------------------------------------|
D|---5~---1~---5~---3~-------------------------------------------------------|
A|---5~---1~---3~---3~-------------------------------------------------------| x 2
D|---5~---1~---5~---3~-------------------------------------------------------|

Verse
"....I wanna explode, watch me..."
e|--------3---------------------------------------------------------|
B|--------3---------------------------------------------------------|
G|--------5---------------------------------------------------------|
D|-5------5---------------------------------------------------------|
A|-5------3---------------------------------------------------------|
D|-5----------------------------------------------------------------|
     
Chorus
".....don't walk away...."
e|---------------------------------------------------------------------------|
B|---------------------------------------------------------------------------|
G|------7----5----7----5---7----5--------5---3----5---3---5---3--------------|
D|-----------------------------------------------------------------------5~--|
A|-----------------------------------3-3---3----3----3---3---3---------------|
D|--5-5---5----5----5----5---5-----------------------------------------------|

Verse
".....I wanna touch you slowly....."
e|--------3---------------------------------------------------------|
B|--------3---------------------------------------------------------|
G|--------5---------------------------------------------------------|
D|-5------5---------------------------------------------------------|
A|-5------3---------------------------------------------------------|
D|-5----------------------------------------------------------------|

Chorus
"....don't walk away....."
e|---------------------------------------------------------------------------|
B|---------------------------------------------------------------------------|
G|------7----5----7----5---7----5--------5---3----5---3---5---3--------------|
D|---------------------------------------------------------------------------|
A|-----------------------------------3-3---3----3----3---3---3---------------|
D|--5-5---5----5----5----5---5-----------------------------------------------|

Bridge
"....why don't you pay if you wanna go"....
e|---------------------------------------------------------------------------|
B|---------------------------------------------------------------------------|
G|---------------------------------------------------------------------------|
D|--12-10-8-10-8-10-10-8-----------------------------------------------------|
A|------------------------8--10----------------------------------------------| x 15
D|---------------------------------------------------------------------------|

Outro (hypersaw synth- heavy distortion on guitar)
e|---------------------------------------------------------------------------|
B|---------------------------------------------------------------------------|
G|-------------5~------------------------------------------------------------|
D|---5~---1~---5~---3~-------------------------------------------------------|
A|---5~---1~---3~---3~-------------------------------------------------------| x 4
D|---5~---1~---5~---3~-------------------------------------------------------|




************************************

| /   slide up
| \   slide down
| h   hammer-on
| p   pull-off
| ~   vibrato
| +   harmonic
| x   Mute note
| b   Bend
| pb  Pre-bend
| br  Bend release
| pbr Pre-bend release
| brb Bend release bend

************************************
Suggest correction
Give kudos to tab author, rate the tab!
1 2 3 4 5
comments
print report bad tab
guest
You may want to rate the tab now too:
select rating
Wanna post a correction for this tab? Suggest correction