Oops, an error
Loading. Please wait.

Fascination bass

13 views 1 this week
no commentswrite comment
1 2 3 4 5
3 more votes to show rating
add to favorites
×
Save as Personal and add changes to this tab that will be seen only by you. Learn more ›
×
You can save this tab as Personal to edit and correct it or add notes. All changes will be seen only by you. Learn more »
launch autoscroll
font size
0
reset
guitar tuner
edit
Autoscroll
slow
fast
+/-
esc
set tempo
stop
Author
Difficulty
About this tab version
Based off the studio version of the song , easy to learn just follow along to the music to get the timing correct. Was this info helpful? Yes No
[Intro]
(No bass)

[Verse]
Up in the same situations
I think back to where we used to be
I’m guessing your eyes are focused on the thrill
But I’ve been thinking about you 
And days I want us to
G|-------------------------------------|
D|-------------------------------------|
A|-------------------------------------| (x4)
E|---8~---11-10---6~---4~---10-8-------|

[Chorus]
How can you wait for love to be over
How can you look away
Why do we say it’s loves fascination
Why do we walk away
G|---------------------------------------|------------------------------------------------|
D|---------------------------------------|------------------------------------------------|
A|---------------------------------------|------------------------------------------------| (x2)
E|--8-8-8-8-8-8-8-8--4-4-4-4---1-1-1-1---|--8-8-8-8-8-8-8-8---4-4-4-4---6-6-6-6-----------|
  (1's not 11's)                                         

[Post-Chorus]
G|-------------------------------------|
D|-------------------------------------|
A|-------------------------------------| (x4)
E|---8~---11-10---6~---4~---10-8-------|

[Verse]
I will leave the dark behind to save you
But then I think you’d rather be just walk away
Just keep in touch
G|-------------------------------------|
D|-------------------------------------|
A|-------------------------------------| (x2)
E|---8~---11-10---6~---4~---10-8-------|

I can’t find my way
A lost maze
But I’ve been thinking about you
In a way that I can’t face
G|-------------------------------------|
D|-------------------------------------|
A|-------------------------------------| (x2)
E|---8~---11-10---6~---4~---10-8-------|

[Chorus]
How can you wait for love to be over
How can you look away
Say we stay for love’s fascination
Why do we want to stay
G|---------------------------------------|------------------------------------------------|
D|---------------------------------------|------------------------------------------------|
A|---------------------------------------|------------------------------------------------| (x2)
E|--8-8-8-8-8-8-8-8--4-4-4-4---1-1-1-1---|--8-8-8-8-8-8-8-8---4-4-4-4---6-6-6-6-----------|
                                        
How can you wait for love to be over
How can you look away

(No bass)
Say we stay for love’s fascination
Why do we want to stay
G|---------------------------------------|------------------------------------------------|
D|---------------------------------------|------------------------------------------------|
A|---------------------------------------|------------------------------------------------| 
E|--8-8-8-8-8-8-8-8--4-4-4-4---1-1-1-1---|--8-8-8-8-8-8-8-8---4-4-4-4---6-6-6-6-----------|
                                       
[Outro]
G|---------------------------------------|------------------------------------------------|
D|---------------------------------------|------------------------------------------------|
A|---------------------------------------|------------------------------------------------|
E|--8-8-8-8-8-8-8-8--4-4-4-4---1-1-1-1---|--8-8-8-8-8-8-8-8---4-4-4-4---6-6-6-6-----------|
                                         

************************************

| ~  Vibrato

************************************
Suggest correction
Creating personal tab
Creating personal tab
You can edit any tab online and save it as your Personal.

You can edit, replace or remove any tab part or add personal notes – all changes will be seen only by you.

Personal tabs can be accessed anytime from any device, even offline.
Learn more »
Give kudos to tab author, rate the tab!
1 2 3 4 5
comments
print report bad tab
guest
You may want to rate the tab now too:
select rating
Wanna post a correction for this tab? Suggest correction