Oops, an error
Loading. Please wait.

I See Red Tab

263 views 1 this week
no commentswrite comment
1 2 3 4 5
please rate
add to favorites
launch autoscroll
font size
0
reset
how to read this tab
guitar tuner
Autoscroll
slow
fast
+/-
esc
set tempo
stop
Help us to improve Ultimate-Guitar.com Take our survey!
×
Contributor
Difficulty
Feeb8669 145
novice
-------------------------------------------------------------------------------
                             I SEE RED - UH HUH HER
-------------------------------------------------------------------------------
Tabbed by: Feeb
Email: stockholm_syndrome@live.com.au

Tuning: Standard Tuning

I tabbed the intro of I See Red as finger tapping.
Left Hand Tap-L
Right Hand Tap-R

Intro
    L L R L L R L L R L R L R
e|---------------------------------------------------------------------------|
B|--5-5-8-5-5-8-5-5-8-5-8-5-7------------------------------------------------| x 4
G|---------------------------------------------------------------------------|
D|---------------------------------------------------------------------------|
A|---------------------------------------------------------------------------|
E|---------------------------------------------------------------------------|

Verse
"...you seem like you're impossible now..."
    L L R L L R L L R L R L R
e|---------------------------------------------------------------------------|
B|--5-5-8-5-5-8-5-5-8-5-8-5-7------------------------------------------------| x 4
G|---------------------------------------------------------------------------|
D|---------------------------------------------------------------------------|
A|---------------------------------------------------------------------------|
E|---------------------------------------------------------------------------|

"....It feels like, it's all possible now..."
e|---------------------------------------------------------------------------|
B|---------------------------------------------------------------------------|
G|-----5------5------5------5------------------------------------------------|
D|--55-5-5555-5-5555-5-5555-5-------7------7------7------7-------------------|
A|--33-3-3333-3-3333-3-3333-3----77-7-7777-7-7777-7-7777-7-------------------|
E|-------------------------------55-5-5555-5-5555-5-5555-5-------------------|
    ..   ....   ....   ....      ..   ....   ....   ....

"...You need love, well I'm gonna show you how...."
e|---------------------------------------------------------------------------|
B|---------------------------------------------------------------------------|
G|---------------------------------------------------------------------------|
D|-----2------2------2------2-------5------5------5------5-------------------|
A|--22-2-2222-2-2222-2-2222-2----55-5-5555-5-5555-5-5555-5-------------------|
E|--00-0-0000-0-0000-0-0000-0----33-3-3333-3-3333-3-3333-3-------------------|
    ..   ....   ....   ....      ..   ....   ....   ....

".....You say that I'm stupid...."
e|---------------------------------------------------------------------------|
B|---------------------------------------------------------------------------|
G|----------4-4-4-4-4--------------------------------------------------------| x 8
D|--4-2-2-2------------------------------------------------------------------|
A|---------------------------------------------------------------------------|
E|---------------------------------------------------------------------------|

Chorus
".....You cry out loud when you're wreckless in the dark...."
".....You cry out loud when you're wreckless in the dark...."
e|---------------------------------------------------------------------------|
B|---------------------------------------------------------------------------|
G|--5------------------------------------------------------------------------|
D|--5----7----2----5---------------------------------------------------------|
A|--3----7----2----5---------------------------------------------------------|
E|-------5----0----3---------------------------------------------------------|

    L L R L L R L L R L R L R
e|---------------------------------------------------------------------------|
B|--5-5-8-5-5-8-5-5-8-5-8-5-7------------------------------------------------| x 2
G|---------------------------------------------------------------------------|
D|---------------------------------------------------------------------------|
A|---------------------------------------------------------------------------|
E|---------------------------------------------------------------------------|

Verse

"....You seem like, you're unstoppable now..."
e|---------------------------------------------------------------------------|
B|---------------------------------------------------------------------------|
G|-----5------5------5------5------------------------------------------------|
D|--55-5-5555-5-5555-5-5555-5-------7------7------7------7-------------------|
A|--33-3-3333-3-3333-3-3333-3----77-7-7777-7-7777-7-7777-7-------------------|
E|-------------------------------55-5-5555-5-5555-5-5555-5-------------------|
    ..   ....   ....   ....      ..   ....   ....   ....

"...You take love, and you keep it all somehow...."
e|---------------------------------------------------------------------------|
B|---------------------------------------------------------------------------|
G|---------------------------------------------------------------------------|
D|-----2------2------2------2-------5------5------5------5-------------------|
A|--22-2-2222-2-2222-2-2222-2----55-5-5555-5-5555-5-5555-5-------------------|
E|--00-0-0000-0-0000-0-0000-0----33-3-3333-3-3333-3-3333-3-------------------|
    ..   ....   ....   ....      ..   ....   ....   ....

".....It feels like, all I need is your help...."
e|---------------------------------------------------------------------------|
B|---------------------------------------------------------------------------|
G|----------4-4-4-4-4--------------------------------------------------------| x 8
D|--4-2-2-2------------------------------------------------------------------|
A|---------------------------------------------------------------------------|
E|---------------------------------------------------------------------------|

Chorus
".....You cry out loud when you're wreckless in the dark...."
e|---------------------------------------------------------------------------|
B|---------------------------------------------------------------------------|
G|--5------------------------------------------------------------------------|
D|--5----7----2----5---------------------------------------------------------|
A|--3----7----2----5---------------------------------------------------------|
E|-------5----0----3---------------------------------------------------------|

Outro (combination of both below)

    L L R L L R L L R L R L R
e|---------------------------------------------------------------------------|
B|--5-5-8-5-5-8-5-5-8-5-8-5-7------------------------------------------------| 
G|---------------------------------------------------------------------------|
D|---------------------------------------------------------------------------|
A|---------------------------------------------------------------------------|
E|---------------------------------------------------------------------------|


e|---------------------------------------------------------------------------|
B|---------------------------------------------------------------------------|
G|----------4-4-4-4-4--------------------------------------------------------| 
D|--4-2-2-2------------------------------------------------------------------|
A|---------------------------------------------------------------------------|
E|---------------------------------------------------------------------------|



************************************

| /   slide up
| \   slide down
| h   hammer-on
| p   pull-off
| ~   vibrato
| +   harmonic
| x   Mute note
| b   Bend
| pb  Pre-bend
| br  Bend release
| pbr Pre-bend release
| brb Bend release bend

************************************
Suggest correction new What's this?
You can suggest a correction to this tab. Community and Mods will review your correction and vote to approve or reject it.
comments
We did not receive enough feedback on this tab! Please rate:
print report bad tab
1 2 3 4 5
guest
You may want to rate the tab now too:
select rating
Please do not post tabs as comments. Select "correction" instead!