Oops, an error
Loading. Please wait.

Ive Had Enough Bass Tab

250 views 1 this week
no commentswrite comment
1 2 3 4 5
please rate
add to favorites
launch autoscroll
font size
0
reset
guitar tuner
Autoscroll
slow
fast
+/-
esc
set tempo
stop
Help us to improve Ultimate-Guitar.com Take our survey!
×
Author
Artist: Uh Huh Her
Album: Black And Blue
Song: I've Had Enough
Tabbed by: Robert Beckman

Intro

| 9-9---9-9-9---9-9-9---9-9-9---9-9-9---9-9-9---9-9-9---9-9-9---9- |
|o----------------------------------------------------------------o|
|o----------------------------------------------------------------o|
| ---------------------------------------------------------------- | x2

  9-9---9-9-9---9-9-9---9-9-9-------------------------------------|
  ----------------------------------------------------------------|
  ----------------------------------------------------------------|
  --------------------------------0-0---0-0-0---0-0-0---0-0-0---0-|

  --------------------------------|
  --------------------------------|
  --------------------------------|
  0-0---0-0-0---0-0-0---0-0-0-0-0-|

Chorus

| ---------------------------------------------------------------- |
|o----------------------------------------------------------------o|
|o----------------------------------------------------------------o|
| 8---8---8-----8-5---5---5---5---0---0---0---0-0---0-0---0---0--- | x2


Verse

| ---------------------------------------------------------------- |
|o----------------------------------------------------------------o|
|o3---3-------3-/-5---5-------5-/-7---7---7---7-7---7-7-\-5---5-\-o|
| ---------------------------------------------------------------- | x3

  ----------------------------------------------------------------|
  ----------------------------------------------------------------|
  3---3-------3-/-5---5-------5-/-7-7-7-7-7-7-7-7-7-7-7-7-7-7-7-7-|
  ----------------------------------------------------------------|

Chorus

Verse

Chorus

Bridge

  9-9---9-9-9---9-9-9---9-9-9---9-9-9---9-9-9---9-9-9---9-9-9---9-|
  ----------------------------------------------------------------|
  ----------------------------------------------------------------|
  ----------------------------------------------------------------|

  9-9---9-9-9---9-9-9---9-9-9---9-9-9---9-9-9---9-9-9---9-9-9-9-9-|
  ----------------------------------------------------------------|
  ----------------------------------------------------------------|
  ----------------------------------------------------------------|

Chorus x2

Ending

  9-9---9-9-9---9-9-9---9-9-9-------------------------------------|
  ----------------------------------------------------------------|
  ------------------------------5-5-5---5-5-5---5-5-5---5-5-5---3-|
  ----------------------------------------------------------------|

  ----------------------------------------------------------------|
  ----------------------------------------------------------------|
  3-3---3-3-3---3-3-3---3-3-3-------------------------------------|
  ------------------------------3-3-3---3-3-3---3-3-3---3-3-0-0-0-|
Suggest correction
Give kudos to tab author, rate the tab!
1 2 3 4 5
comments
print report bad tab
guest
You may want to rate the tab now too:
select rating
Wanna post a correction for this tab? Suggest correction