Oops, an error
Loading. Please wait.

Mystery Lights Bass Tab

1,535 views 3 this week
no commentswrite comment
1 2 3 4 5
please rate
add to favorites
launch autoscroll
font size
0
reset
guitar tuner
Tab Pro tools
  • play this tab
  • loop segment
  • change instrument
  • show fretboard
  • metronome
Autoscroll
slow
fast
+/-
esc
set tempo
stop
Contributor
-------------------------------------------------------------------------------
			     Mystery Lights - Uh Huh Her
-------------------------------------------------------------------------------

Tabbed By: Valerie Louie
e-mail: queefist@yahoo.com
Tuning: standard

intro
G|-----8--8--8h10~----10---10--10-------7--7--7--------------------|
D|1010--10-10-----10----10---10--10--88--8--8--------10---10---10--|
A|-----------------------------------------------8-8----8----8---8-|
E|-----------------------------------------------------------------|x2

verse "billions of people they have their reasons"
G|--------------------------------------------------------|
D|-101010101010-1010-101010101010101010-8888888-----------|
A|----------------------------------------------8-8888888-|
E|--------------------------------------------------------|x4

pre-chorus "all the people will try and fight"
G|----------------------------------------------------------------------|
D|-10101010-10101212-131313121212-13131212121212121212-1010101010101010-|
A|----------------------------------------------------------------------|
E|----------------------------------------------------------------------|

"what they don't know will kill them" these are 11's
G|----------------------------------------------------------------|
D|----------------------------------------------------------------|
A|1111111111111111-1010101010101010--11/131313131313131313-8-88~--|
E|----------------------------------------------------------------|

chorus "come down, systems collide"
G|----------------------------------------|
D|----------------------------------------|
A|33333333-11111111-------------------1h2-|
E|------------------44444444-33333333-----| x4

pre-verse
G|-------------------------------------------------------------------|
D|-101010101010101010101010101010-1313131313131313-12121212-121312---|
A|----------------------------------------------------------------13-|
E|-------------------------------------------------------------------|

introx1
verse x4

pre-chorus "all good people"
G|---------------------------------------------------------------|
D|---------------------------------------------------------------|
A|-1111111111111111-101010101010101011-1313131313131313-888888810|
E|---------------------------------------------------------------|

G|----------------------------------------------------------|
D|----------------------------------------------------------|
A|-1111111111111111-101010101010101011-1313131313131313-88~-|
E|----------------------------------------------------------|

chorus x4

bridge "it's a little too late...."
G|-------------------------------------------------------------------------|
D|-10101010101010-10/1313131313131313-1212121212121212-12/1515151515151515-|
A|-------------------------------------------------------------------------|
E|-------------------------------------------------------------------------|x4

outro chorus
G|-------------10-----------------10------------10---------------|
D|-1010-101010----10--1010-101010----10--88-888----8--------10---|
A|---------------------------------------------------88-888----8-|
E|---------------------------------------------------------------|

comments
We did not receive enough feedback on this tab! Please rate:
print report bad tab
1 2 3 4 5
I want to post or [tab]
guest
You may want to rate the tab now too:
select rating
Please do not post tabs as comments. Select "correction" instead!